Сплин - Кое-что еще, аккорды

Прокрутка
Тональность
Шрифт
100
Вариант 1.

Intro: x2
     A                                                    D
1|------------------------7--7-7----5--5-5--|--4--4-4---2--2-2---------
2|----------------5--5-5--------------------|-------------------5--5-5-
3|--------6--6-6----------------------------|--------------------------
4|-7--7-7-----------------------------------|--------------------------

          E *                A
Крутятся деньги, банки и вкладыши
             E              A      
А ты любишь детсы, беллы и ландыши 
   D        A          D       A
и лазеры и латексы и кое-что еще
        E                   A
Я не высокий, скромный и худенький
         E                A    
Я люблю соки, допинг и пудинги 
    D        A       D         A        D
и понтики и поршики и кое-что еще... аааа
         A          D             A     D
Кое-что еще... ааааа... кое-что еще... аааа

Solo: x2
     A                                                    D
1|------------------------7--7-7----5--5-5--|--4--4-4---2--2-2---------
2|----------------5--5-5--------------------|-------------------5--5-5-
3|--------6--6-6----------------------------|--------------------------
4|-7--7-7-----------------------------------|--------------------------

        E                   A
Между собакой, кошкой и страусом 
        E                   A
Спрятаны все наши страхи и радость
    D        A       D     A     D
и и радуги и радио и кое-что еще... 
         A          D             A     D
Кое-что еще... ааааа... кое-что еще... аааа

______________________

Вариант 2.

             A       E      F#m  (D)
   Крутятся деньги, банки и вкладыши,
                A     E
   А ты любишь децы, белы
     F#m         D         A         D     F#m
   И ландыши, и лазеры, и латексы и кое-что-еще.

             A       E      F#m  (D)
   Я невысокий, скромный и худенький,
                A    E
   Я люблю соки, допинг
     F#m         D         A         D     F#m
   И пудинги, и пультики, и пуншики и кое-что-еще
    D       F#m D
   Кое-что-еще,
    D       F#m D
   Кое-что-еще,
    D       F#m D
   Кое-что-еще.

             A       E      F#m  (D)
   Между собакой, кошкой и страусом
                A    E
   Спрятаны все наши страхи
     F#m         D         A         D     F#m
   И радости, и радуги, и радио и кое-что-еще,
    D       F#m D
   Кое-что-еще,
    D       F#m D
   Кое-что-еще,
    D       F#m D
   Кое-что-еще.

Комментарий автора:

Вариант 1: Вступление повторяется 2 раза - но во второй раз оно как бы "зацыкливается"
на аккорде D т.е. на 5 ладу 1ой струны.
___________
Вариант 2: Подобрал: Max Swap.
 
 

Видео