Сплин - Корабль ждет, аккорды

Прокрутка
Тональность
Шрифт
100
Gmsus4+5
Какой противный аккорд
Какой-такой поставил знак, 
закрыл доселе здесь существовавший левый поворот?
Мы едем в порт, у нас цейтнот, 
                                      Am-(G#-G-F#)
таксист бухой, шансон орет, корабль ждет!
          (D-C#-C-H)
Корабль ждет


Какой убойный косяк
Я думал жизнь полна кошмаров, вурдалаков, санитаров, вышло все как раз так
Реинкарнация возможна - надо только проплатить до 19:00, а то закроется банк

Какое чувство растет
Через мгновение с пассажирами, командой, капитаном, duty-free, бассейном, сауной
камином, улетает пароход
Ты не волнуйся - мы успеем, банк открыт, проспект свободен, пробок нет, таксист
бухой, шансон орет, корабль ждет!

Корабль ждет
Корабль... (Я так люблю этот строй...)

Комментарий автора:

Вступление:

E||--8--11------|--8-8--11-11----|
B||--5--8-------|--5-5--8--8-----|
G||--6--9-------|--6-6--9--9-----|
D||--5--8-------|--5-5--8--8-----|
A||--7--10------|--7-7--10-10----|
E||--5--8-------|--5-5--8--8-----|

Куплет:

E||--8--11------------|--8-8--11-11-----------|
B||--5--8-------------|--5-5--8--8------------|
G||--6--9----------10-|--6-6--9--9---10-------|
D||--5--8---9--12-----|--5-5--8--8-------12--9|
A||--7--10------------|--7-7--10-10-----------|
E||--5--8-------------|--5-5--8--8------------|

Припев:

E||--5-5-5-5-4-4-4-4-|-3-3-3-3-2-2-2-2-|-9--9--9--9--8--8--8--8--|
B||--5-5-5-5-4-4-4-4-|-3-3-3-3-2-2-2-2-|-9--9--9--9--8--8--8--8--|
G||--6-6-6-6-5-5-5-5-|-4-4-4-4-3-3-3-3-|-10-10-10-10-9--9--9--9--|
D||--7-7-7-7-6-6-6-6-|-5-5-5-5-4-4-4-4-|-11-11-11-11-10-10-10-10-|
A||--7-7-7-7-6-6-6-6-|-5-5-5-5-4-4-4-4-|-11-11-11-11-10-10-10-10-|

|-7-7-7-7-6-6-6-6||
|-7-7-7-7-6-6-6-6||
|-8-8-8-8-7-7-7-7||
|-9-9-9-9-8-8-8-8||
|-9-9-9-9-8-8-8-8||
|-7-7-7-7-6-6-6-6||
 
 
Свернуть Распечатать