Сплин - Йог спокоен, аккорды

Прокрутка
Тональность
Шрифт
100
Main Riff:
   G
4|-------------------5-3--|   
5|-----3-5-3---3----------|     
6|-3-6-------6---6-3------|     

   G
4|------------------------|   
5|-----3-5-3---3----------|     
6|-3-6-------6---6--------|     

   G                      G
 След останется и как бы ты не заметал.
   G                      G
 Люди носятся по свету, гибнут за металл.      
    
Припев:    
   F
  Жизнь идет, йог спокоен,
   C
  А жизнь идет, йог спокоен,
   Dm                                G (Проигрыш)
  Жизнь идет, йог спокоен как всегдаа-а-а 
  
Проигрыш: (Много раз)
   G
2|---1-3-3-3-1-3-3-3-1-3-3-36-5-3-|

2|-1-1-3-3-3-1-3-3-3-1-3-3-1--0--2--|

   G                      G
 Тридцать лет прошли под кайфом, целых тридцать лет,
   G                      G
 И еще три года с лишним, где мой пистолет??? 
 
Припев:    
   F
  Жизнь идет, йог спокоен,
   C
  А жизнь идет, йог спокоен,
   Dm                                G (Проигрыш)
  Жизнь идет, йог спокоен как всегдаа-а-а 

Проигрыш: (Много раз)
   G
2|---1-3-3-3-1-3-3-3-1-3-3-36-5-3-|

2|-1-1-3-3-3-1-3-3-3-1-3-3-1--0--2--|

Припев:    
   C
  Жизнь идет, йог спокоен,
   G
  А жизнь идет, йог спокоен,
   Am                              D
  Жизнь идет, йог спокоен как всегдаа-а-а
 
 

Видео