Split Enz - I Got You, аккорды

Прокрутка
Тональность
Шрифт
100
Intro: *palm muted*  
e|----------------------------------| 
b|----------------------------------| 
g|----------------------------------| 
d|-7-7-7-7-8-8-8-8-7-7-7-7-8-8-8-8--| 
a|-5-5-5-5-5-5-5-5-5-5-5-5-5-5-5-5--| 
e|----------------------------------| 
 
Riffs: *palm muted*
        D               A#                A              Gm  
e|------------------------------------------------------------------| 
b|------------------------------------------------------------------| 
g|------------------------------------------------------------------| 
d|-7-7-7-7-7-7-7-7-8-8-8-8-8-8-8-8-7-7-7-7-7-7-7-7-5-5-5-5-5-5-5-5--| 
a|-5-5-5-5-5-5-5-5-8-8-8-8-8-8-8-8-7-7-7-7-7-7-7-7-5-5-5-5-5-5-5-5--| 
e|-5-5-5-5-5-5-5-5-6-6-6-6-6-6-6-6-5-5-5-5-5-5-5-5-3-3-3-3-3-3-3-3--| 
 
 D      A#  A            Gm  
I got you - that's all I want 
 D          A#   A            Gm  
I won't forget - that's a whole lot 
 D          A#   A           Gm  
I don't go out - now that you're in 
 D             A#   A                Gm  
Sometimes we shout - but that's no problem 
 G        A        Em       A      D  
I don't know why sometimes I get frightened 
     G          A             Em        G       A  
You can see my eyes, you can tell that I'm not lyin' 
 
 D        A#  A          Gm  
Look at you - you're a pageant 
 D            A#   A              Gm  
You're everything - that I've imagined 
 D            A#   A         Gm  
Something's wrong - I feel uneasy 
 D        A#  A                    Gm  
You show me - tell me you're not teasin' 
 
 G        A        Em       A      D  
I don't know why sometimes I get frightened 
         G      A             Em       G         A  
You can see my eyes, you can tell that I'm not lyin' 
 
G A }x3 A# C  
 
 D           A#   A               Gm  
There's no doubt - not when I'm with you 
 D            A#  A            Gm  
When I'm without - I stay in my room 
 D            A#  A          Gm  
Where do you go - I get no answer 
 D             A#  A             Gm  
You're always out - it gets on my nerves 
 
 G        A        Em       A      D  
I don't know why sometimes I get frightened 
         G      A            Em        G       A  
You can see my eyes you can tell that I'm not lying 
 G        A        Em       A      D  
I don't know why sometimes I get frightened 
         G      A             Em        G       A  
You can see my eyes, you can tell that I'm not lyin' 
 G        A        Em       A      D  
I don't know why sometimes I get frightened 
         G      A             Em       G        A  
You can see my eyes, you can tell that I'm not lying
 
 

Видео