Static X - Black And White, аккорды

Прокрутка
Тональность
Шрифт
100
Tuning -  B E A D G
 
Intro/verse
G|-----------------------------|
D|---------------------------|
A|-----------------------------|
E|-3-------------------------|
B|----0--2-3-2-0---------------|
         ^On every repeat, hold this note longer 
         and skip the last one. 
Chorus:
G|-----------------------------------|
D|-----------------------------------|
A|-----------------------------------|
E|-----------------------------------|
B|-2-2-2----2-2-2-4---4-4-4-5----4---|

Bridge:
G|-----------------------------------|
D|---------------------------------|
A|-----------------------------------|
E|---------------------------------|
B|-6-0-2-3-2-0---6-6-6-0-2-3-2-0-----|
 Listen carefully during this seciton.

Комментарий автора:

It should be pretty easy, the riffs are played over and over again.
|--------| means to repeat this section
 
 

Видео