Static X - Push It, аккорды

Прокрутка
Тональность
Шрифт
100
Tuning: CGCFAD
 
Intro:
|-11---11----11---11----11---11----11---11-----|
|--x----x-----x----x-----x----x-----x----x-----|
|--8----8-----8----8-----8----8-----8----8-----|
|---------------------------------------------|
|---------------------------------------------|
|----0----0>----0----0>----0----0>----0----0>-|

Verse:
|---------------------------------------|
|---------------------------------------|
|---------------------------------------|
|-223-2223-223-2223-223-2223-223-2223>>>|
|-223-2223-223-2223-223-2223-223-2223>>>|
|-223-2223-223-2223-223-2223-223-2223>>>|

|---------------------------------------|
|---------------------------------------|
|-----------------------------8---8-----|
|-223-2223-223-2223-223-2223--x---x-----|
|-223-2223-223-2223-223-2223--6---6-----|
|-223-2223-223-2223-223-2223----0---0>>-|

Chorus:
|-------------------------------------|
|-------------------------------------|
|-------------------------------------|
|-223-2223-223-2223-223-2223-223-2232-|
|-223-2223-223-2223-223-2223-223-2232-|
|-223-2223-223-2223-223-2223-223-2232-|

|-------------------------------------|
|-------------------------------------|
|-------------------------------------|
|-223-2223-223-2223-223-2223-322-3223-|
|-223-2223-223-2223-223-2223-322-3223-|
|-223-2223-223-2223-223-2223-322-3223-|

Bridge 1:
|-11---11----11---11----11---11----11---11----|
|--x----x-----x----x-----x----x-----x----x----|
|--8----8-----8----8-----8----8-----8----8----|
|---------------------------------------------|
|---------------------------------------------|
|----0----0>----0----0>----0----0>----0----0>-|

Bridge 2:
|-----------^----------^----------^---------|
|---------17^--------17^--------17^---------|
|---------20^--------20^--------20^---------|
|-223-2223---223-2223---223-2223---223-2223-|
|-223-2223---223-2223---223-2223---223-2223-|
|-223-2223---223-2223---223-2223---223-2223-|
 ... ....  ... ....  ... ....  ... ....

Bridge 3:
|-11---11----11---11----11---11----11---11----|
|--x----x-----x----x-----x----x-----x----x----|
|--8----8-----8----8-----8----8-----8----8----|
|---------------------------------------------|
|---------------------------------------------|
|----0----0>----0----0>----0----0>----0----0>-|

Bridge 4:
|----------------|
|----------------|
|----------------|
|-3>>>>>>1>>>>>>>|
|-3>>>>>>1>>>>>>>|
|-3>>>>>>1>>>>>>>|

Bridge 5:
|-------------------------------------|
|-------------------------------------|
|-------------------------------------|
|-223-2223-223-2223-223-2223-223-2232-|
|-223-2223-223-2223-223-2223-223-2232-|
|-223-2223-223-2223-223-2223-223-2232-|

Bridge 6:
|----------------|
|----------------|
|----------------|
|-3>>>>>>1>>>>>>>|
|-3>>>>>>1>>>>>>>|
|-3>>>>>>1>>>>>>>|

Chorus:
|-------------------------------------|
|-------------------------------------|
|-------------------------------------|
|-223-2223-223-2223-223-2223-223-2232-|
|-223-2223-223-2223-223-2223-223-2232-|
|-223-2223-223-2223-223-2223-223-2232-|

|-------------------------------------|
|-------------------------------------|
|-------------------------------------|
|-223-2223-223-2223-223-2223-322-3223-|
|-223-2223-223-2223-223-2223-322-3223-|
|-223-2223-223-2223-223-2223-322-3223-|

Комментарий автора:

> let ring
   . pulm mute
   ^ bend
    slide down
   x muted
 
 

Видео