Static X - Push It (bass), аккорды

Прокрутка
Тональность
Шрифт
100
Standard tuning(BEADGC)
Note, you need a six string, or a 5 string bass to play this song!!

Bass:Intro
C-----------------
G-----------------
D-----------------
A-----------------
E-0-0-2-----------
B-------0-0-4-----

Bass: verse
C-------------------------
G-------------------------
D-------------------------
A-------3-3-6-------------
E-------------------------
B-1-1-4-------------------

Bass:Chorus
Yeah you push it     You, you push it
C--------------------- C---------------------
G--------------------- G---------------------
D--------------------- D-------2-2-2-4-------
A-------3-3-6--------- A---------------------
E--------------------- E-0-0-2---------------
B-1-1-4--------------- B---------------------

Bass:Bridge (I see it, i need it)
C--------------------
G--------------------
D--------------------
A--------------------
E-0-0-2--------------
B-----------2-2--4---
 
 

Видео