Static X - This Is Not, аккорды

Прокрутка
Тональность
Шрифт
100
Tuning: C F A# D# G C

Intro
C |---------------------------------|    |-----|
G |---------------------------------|    |-----| Sustain this
D#|---------------------------------|    |-----| on the 4th and 8th
A#|---5----5----5---5--5----5-------| x8 |--5--| times only
F |---5----5----5---5--5----5-------|    |--5--|
C |--3p0--3p0--3p0--0--0---3p0------|    |--3--|

Verse Part 1
C |-----------------------|
G |-----------------------|
D#|-----------------------|
A#|---5--5----5---5--5----| x8
F |---5--5----5---5--5----|
C |---0--0----3---0--0----|

Verse Part 2
C |-------------------------|
G |-------------------------|
D#|-------------------------|
A#|--5-5--5--5--5--5--5-----| x4
F |--5-5--5--5--5--5--5-----|
C |--0-0--0--0--3--0--0-----|
   _/
   PM

Verse Part 1
C |-----------------------|
G |-----------------------|
D#|-----------------------|
A#|---5--5----5---5--5----| x4
F |---5--5----5---5--5----|
C |---0--0----3---0--0----|

Chorus
C |---------|
G |---------|
D#|---------|
A#|--9--7---| x8
F |--9--7---|
C |--9--7---|

C |---------------------------------|    |-----|
G |---------------------------------|    |-----| Sustain this
D#|---------------------------------|    |-----| on the 4th and 8th
A#|---5----5----5---5--5----5-------| x8 |--5--| times only
F |---5----5----5---5--5----5-------|    |--5--|
C |--3p0--3p0--3p0--0--0---3p0------|    |--3--|

Verse Part 1
C |-----------------------|      
G |-----------------------|
D#|-----------------------|
A#|---5--5----5---5--5----| x8
F |---5--5----5---5--5----|
C |---0--0----3---0--0----|

Verse Part 2
C |-------------------------|
G |-------------------------|
D#|-------------------------|
A#|--5-5--5--5--5--5--5-----| x4
F |--5-5--5--5--5--5--5-----|
C |--0-0--0--0--3--0--0-----|
   _/
   PM

Verse Part 1
C |-----------------------|
G |-----------------------|
D#|-----------------------|
A#|---5--5----5---5--5----| x4
F |---5--5----5---5--5----|
C |---0--0----3---0--0----|

Chorus
C |---------|
G |---------|
D#|---------|
A#|--9--7---| x8
F |--9--7---|
C |--9--7---|

Bridge - Repeat 4 Times
C |-----------------------|        |-------|
G |-----------------------|        |-------|
D#|-----------------------|        |-------|
A#|-5--5--5--5--5--5--5---| x4 Then Play this: |-5-5---| x1
F |-5--5--5--5--5--5--5---|        |-5-5---|
C |-0--0--3--0--0--0--3---|        |-0-0---|
                      _/
                      PM
Chorus
C |---------|
G |---------|
D#|---------|
A#|--9--7---| x8
F |--9--7---|
C |--9--7---|

C |---------------------------------|    |-----|
G |---------------------------------|    |-----| Sustain this
D#|---------------------------------|    |-----| on the 4th and 8th
A#|---5----5----5---5--5----5-------| x8 |--5--| times only
F |---5----5----5---5--5----5-------|    |--5--|
C |--3p0--3p0--3p0--0--0---3p0------|    |--3--|

C |--------------|
G |--------------|
D#|--------------|
A#|--SLIDE DOWN--|
F |--SLIDE DOWN--|
C |--SLIDE DOWN--|

Комментарий автора:

P = Pull off
PM = Palm Mute
 
 

Видео