Static X - Ostego Undead, аккорды

Прокрутка
Тональность
Шрифт
100
The Whole Song Is Basically Just 2 Guitar Riffs

D-----------------------------------------------------------|
A-----------------------------------------------------------|
F-----------------------------------------------------------|
C--0-0-3--0-0-3--0-0-3--0-0-3--0-0-3--0-0-3--0-0-3--0-0-3---|
G--0-0-3--0-0-3--0-0-3--0-0-3--0-0-3--0-0-3--0-0-3--0-0-3---|
C--0-0-3--0-0-3--0-0-3--0-0-3--0-0-3--0-0-3--0-0-3--0-0-3---|

  ----------------------Palm Mute--------------------/

D------------------------------|
A------------------------------|
F------------------------------|
C--2-2-2-2-0-0-----------------|
G--2-2-2-2-0-0-----------------|
C--2-2-2-2-0-0-----------------|

Listen For Rhythm
 
 

Видео