Static X - Fix, аккорды

Прокрутка
Тональность
Шрифт
100
Tuning: C F A# D# G C 

INTRO:
      x4 
|-------------------| 
|-------------------| 
|-------------------| 
|-------------------| 
|-------------------| 
|-0--0----0-0--0----| 
 
VERSE :
      x8 
|-------------------| 
|-------------------| 
|-------------------| 
|-2--2----2-2--2----| 
|-2--2----2-2--2----| 
|-0--0----0-0--0----| 
 
CHORUS:
|-------------------------------------------------------------| 
|-------------------------------------------------------------| 
|------15---------15---------15-------12-12-12-12-12/13-13-13-| 
|-2-2------2-2-2------2-2-2------2-2--------------------------| 
|-2-2--13--2-2-2--13--2-2-2--13--2-2--10-10-10-10-10/11-11-11-| 
|-0-0------0-0-0------0-0-0------0-0--------------------------| 
 
VERSE: 
      x8 
|-------------------| 
|-------------------| 
|-------------------| 
|-2--2----2-2--2----| 
|-2--2----2-2--2----| 
|-0--0----0-0--0----| 
 
PRECHORUS:
|---------------------------------------| 
|---------------------------------------| 
|---------------------------------------| 
|---------------------------------------| 
|---------------------------------------| 
|-0--0----0-0--0----0-0--0----0-0--0----| 
 
CHORUS 2: 
                      x2 
|-------------------------------------------------------------| 
|-------------------------------------------------------------| 
|------15---------15---------15-------12-12-12-12-12/13-13-13-| 
|-2-2------2-2-2------2-2-2------2-2--------------------------| 
|-2-2--13--2-2-2--13--2-2-2--13--2-2--10-10-10-10-10/11-11-11-| 
|-0-0------0-0-0------0-0-0------0-0--------------------------| 
 
BTIDGE:
           x16 
|-------------------| 
|-------------------| 
|-------------------| 
|-2--2----2-2--2----| 
|-2--2----2-2--2----| 
|-0--0----0-0--0----| 
 . .   ... . 
 
CHORUS 3:
                      x2 
|-------------------------------------------------------------| 
|-------------------------------------------------------------| 
|------15---------15---------15-------12-12-12-12-12/13-13-13-| 
|-2-2------2-2-2------2-2-2------2-2--------------------------| 
|-2-2--13--2-2-2--13--2-2-2--13--2-2--10-10-10-10-10/11-11-11-| 
|-0-0------0-0-0------0-0-0------0-0--------------------------| 
 
INTERLUDE:
|-----------------------------------------------------------------| 
|-----------------------------------------------------------------| 
|-7-7-7-7-7-7-7-7-7-7-7-7-7-7-7-7-7-7-7-7-7-7-7-7-7-7-7-7-7-7-7-7-| 
|-----------------------------------------------------------------| 
|-5-5-5-5-5-5-5-5-5-5-5-5-5-5-5-5-5-5-5-5-5-5-5-5-5-5-5-5-5-5-5-5-| 
|-----------------------------------------------------------------| 
CHORUS 4:
                      x2 
|-------------------------------------------------------------| 
|-------------------------------------------------------------| 
|------15---------15---------15-------12-12-12-12-12/13-13-13-| 
|-2-2------2-2-2------2-2-2------2-2--------------------------| 
|-2-2--13--2-2-2--13--2-2-2--13--2-2--10-10-10-10-10/11-11-11-| 
|-0-0------0-0-0------0-0-0------0-0--------------------------| 
 
|--------| 
|--------| 
|--------| 
|-X--| 
|-X--| 
|-X--| 
 
VERSE 3:
      x8 
|-------------------| 
|-------------------| 
|-------------------| 
|-2--2----2-2--2----| 
|-2--2----2-2--2----| 
|-0--0----0-0--0----| 
 
OUTRO:
      x8 
|-------------------| 
|-------------------| 
|-------------------| 
|-2--2-2--2-2--2----| 
|-2--2-2--2-2--2----| 
|-0--0-0--0-0--0----|
 
 

Видео