Static X - Otsegolectric, аккорды

Прокрутка
Тональность
Шрифт
100
Tuning: drop D (E B G D A D)

Intro, dist.:
E|-------------------------------|--------------------------------|
B|-------------------------------|--------------------------------|
G|-------------------------------|--------------------------------|
D|-8-8-888---8-8-888---8-8-888---|-8-8-888---8-8-888----8-8-888---|
A|-8-8-888-9-8-8-888-6-8-8-888-8-|-8-8-888-9-8-8-888-11-8-8-888-8-|
D|-8-8-888---8-8-888---8-8-888---|-8-8-888---8-8-888----8-8-888---|

Verse, dist.: this is tune they use for the verse
E|-----|
B|-----|
G|-----| GTR.1
D|-----|
A|-333-|
D|-333-|

E|-----------------------------|
B|-8---8--9---9-11---11--9---9-|
G|---5------6------8-------6---| GTR.2
D|-----------------------------|
A|-----------------------------|
D|-----------------------------|

Chorus, dist.:
E|-------------------------------|--------------------------------|
B|-------------------------------|--------------------------------|
G|-------------------------------|--------------------------------|
D|-8-8-888---8-8-888---8-8-888---|-8-8-888---8-8-888----8-8-888---|
A|-8-8-888-9-8-8-888-6-8-8-888-8-|-8-8-888-9-8-8-888-11-8-8-888-8-|
D|-8-8-888---8-8-888---8-8-888---|-8-8-888---8-8-888----8-8-888---|

Bridge 1:
E|-----------------------|
B|-----------------------|
G|-----------------------|
D|-3~~~-8-8-888--8-8-888-|
A|-3~~~-8-8-888--8-8-888-|
D|-3~~~-8-8-888--8-8-888-|
 
Bridge: GTR.2 comes in a little later
E|-------------------------|
B|----------4--444667664---|
G|-55565-666-6----------6--|
D|-------------------------|
A|-------------------------|
D|-------------------------|
 
 

Видео