Static X - Destroy All, аккорды

Прокрутка
Тональность
Шрифт
100
Tunning - Drop A# (A# F A# D# G C)

RIFF PLAYED THROUGHOUT THE SONG:
---------------------------------------|
---------------------------------------|
---------------------------------------|
---------------------------------------|
--2-2-3-0--2-2-3-0--2-2-3-0-2-2--2-----|
--2-2-3-0--2-2-3-0--2-2-3-0-2-2--2-----|

FILL 1 (YOU'LL HEAR IT)
----------------------------------------|
-13^--13^--13^--13^--13^--13^--13^--13^-|
----------------------------------------| LISTEN TO CD TO FIGURE OUT
----------------------------------------| TIMING AND HOW MANY TIMES IT'S
----------------------------------------| PLAYED
----------------------------------------|

FILL 2 (ITS PLAYED OVER THE LAST 2 TIMES THE MAIN RIFF IS PLAYED)
--13p-0--11p-0--10p-0-------------------|
-----------------------10---------------|
----------------------------------------|  AGAIN, LISTEN TO THE CD TO
----------------------------------------|  FIGURE TIMING AND HOW MANY TIMES
----------------------------------------|  IT'S PLAYED
----------------------------------------|
 
 

Видео