Static X - Structural Defect, аккорды

Прокрутка
Тональность
Шрифт
100
Riff 1
Guitar 1
|-------------------------------|
|-------------------------------|
|-------------------------------|
|-------------------------------|
|-------------------------------|
|-(0)---0000000--0000-----------|Palm Mute
  ^only the fist time

Riff 2 (0:08)
Guitar 1
|-------------------------|
|-------------------------|
|-------------------------|
|-------------------------|
|-------------------------|
|-0000000--0000-----------|Palm Mute
Guitar 2
|-------------------------|
|-------------------------|
|-------------------------|
|-------------------------|
|-------------------------|
|-0000000--0000-----------|Palm Mute

Riff 3 (0:31)
Guitar 1
|-------------------------|
|-------------------------|
|-------------------------|
|-------------------------|
|-------------------------|
|-0000000--0000-----------|Palm Mute

Riff 4 (Chorus 1) (0:33)
Guitar 1
|------------------------------|
|------------------------------|
|------------------------------|
|-0h6--0h6--0h6--0h6-----------|
|-0h6--0h6--0h6--0h6-----------|
|-0h6--0h6--0h6--0h6-----------|
Guitar 2
|------------------------------|
|------------------------------|
|------------------------------|
|---0h6--0h6--6-6h0------------|
|---0h6--0h6--6-6h0------------|
|---0h6--0h6--6-6h0------------|

Verse 1 (Riff 2) (0:50)
Guitar 1
|-------------------------|
|-------------------------|
|-------------------------|
|-------------------------|
|-------------------------|
|-0000000--0000-----------|Palm Mute
Guitar 2
|-------------------------|
|-------------------------|
|-------------------------|
|-------------------------|
|-------------------------|
|-0000000--0000-----------|Palm Mute

Chorus 2 (1:06)
Both guitars
|------------------------------|
|------------------------------|
|------------------------------|
|-0h6--0h6--0h6--0h6-----------|
|-0h6--0h6--0h6--0h6-----------|
|-0h6--0h6--0h6--0h6-----------|

Verse 2 (Riff 2) (1:23)
Guitar 1
|-------------------------|
|-------------------------|
|-------------------------|
|-------------------------|
|-------------------------|
|-0000000--0000-----------|Palm Mute
Guitar 2
|-------------------------|
|-------------------------|
|-------------------------|
|-------------------------|
|-------------------------|
|-0000000--0000-----------|Palm Mute

Chorus 2 (1:40)
Both guitars
|------------------------------|
|------------------------------|
|------------------------------|
|-0h6--0h6--0h6--0h6-----------|
|-0h6--0h6--0h6--0h6-----------|
|-0h6--0h6--0h6--0h6-----------|

Interlude (1:57)
Guitar 1
|-------------------------|
|-------------------------|
|-------------------------|
|-------------------------|
|-------------------------|
|-0000000--0000-----------|Palm Mute
Guitar 2
|-------------------------|
|-------------------------|
|-------------------------|
|-------------------------|
|-------------------------|
|-0000000--0000-----------|Palm Mute

Chorus 2 (2:30)
Both guitars
|------------------------------|
|------------------------------|
|------------------------------|
|-0h6--0h6--0h6--0h6-----------|
|-0h6--0h6--0h6--0h6-----------|
|-0h6--0h6--0h6--0h6-----------|

Bridge (2:47)
Both guitars
|------------------------------|
|------------------------------|
|------------------------------|
|--2~~~~-----------------------|
|--2~~~~---Let ring------------|
|--2~~~~-----------------------|

Chorus 1 (3:04)
Guitar 1
|------------------------------|
|------------------------------|
|------------------------------|
|-0h6--0h6--0h6--0h6-----------|
|-0h6--0h6--0h6--0h6-----------|
|-0h6--0h6--0h6--0h6-----------|
Guitar 2
|------------------------------|
|------------------------------|
|------------------------------|
|-(0h6)--0h6--6-6h0------------|
|-(0h6)--0h6--6-6h0------------|
|-(0h6)--0h6--6-6h0------------|
 
 

Видео