Static X - Get To The Gone, аккорды

Прокрутка
Тональность
Шрифт
100
Intro: 
|--------------------|
|--------------------|
|--------------------| 
|--------------------|
|--0--3--2--1--0--6--|
|--0--3--2--1--0--6--| 
You have to play this very fast. 

Chorus:
|-----------------------------------------|
|-----------------------------------------|
|-----------------------------------------|
|-----------------------------------------|
|--0--0--6--0---0--6--0---0--6--0---0--6--|
|--0--0--6--0---0--6--0---0--6--0---0--6--|

Verse:
|--------------|
|--------------|
|--------------|
|--------------|
|--0--0--6--0--|
|--0--0--6--0--| You play this one time

Bridge 1:
|-----------------------------------------------------------------|
|-----------------------------------------------------------------|
|-----------------------------------------------------------------|
|-3-3-3-3-3-3-3-3-3-3-3-3-3-3-3-3-3-3-3-3-3-3-3-3-3-3-3-3-4-4-4-4-|
|-3-3-3-3-3-3-3-3-3-3-3-3-3-3-3-3-3-3-3-3-3-3-3-3-3-3-3-3-4-4-4-4-|
|-3-3-3-3-3-3-3-3-3-3-3-3-3-3-3-3-3-3-3-3-3-3-3-3-3-3-3-3-4-4-4-4-|

Bridge 2:
|-----------------------------------------------------------------|
|-----------------------------------------------------------------|
|-----------------------------------------------------------------|
|-3-3-3-3-3-3-3-3-3-3-3-3-3-3-3-3-3-3-3-3-3-3-3-3-3-3-3-3-1-1-1-1-|
|-3-3-3-3-3-3-3-3-3-3-3-3-3-3-3-3-3-3-3-3-3-3-3-3-3-3-3-3-1-1-1-1-|
|-3-3-3-3-3-3-3-3-3-3-3-3-3-3-3-3-3-3-3-3-3-3-3-3-3-3-3-3-1-1-1-1-|
 
 

Видео