Static X - Burn To Burn, аккорды

Прокрутка
Тональность
Шрифт
100
There are to ways to play the chorus try with both.

 Intro:
1|--------------------------------------|
2|--------------------------------------|
3|--------------------------------------|
4|-2/1----2---2-2-----------------------| x8
5|-2/1----2---2-2-----------------------|
6|-0-0----0---0-0-----------------------|

 Verse part 1:
1|---------------|
2|---------------|
3|---------------|
4|-4~~~/5-6/7----| x6
5|-4~~~/5-6/7----|
6|-2~~~/3-4/5----|

 Verse part 2:
1|---------|
2|---------|
3|-3~~~~---|
4|-3~~~~---|
5|-1~~~~---|
6|---------|

 Verse part 1:
1|---------------|
2|---------------|
3|---------------|
4|-4~~~/5-6/7----| x5
5|-4~~~/5-6/7----|
6|-2~~~/3-4/5----|

 Verse part 3:
1|------------------|
2|------------------|
3|------------------|
4|-5/4---3/1--------| x1
5|-5/4---3/1--------|
6|-0-0---0-0--------|

 Verse part 2:
1|---------|
2|---------|
3|-3~~~~---|
4|-3~~~~---| x1
5|-1~~~~---|
6|---------|

 Chorus:
1|-------------------|
2|-------------------|
3|-------------------|
4|-2-2--22-----------| x4
5|-2-2--22-----------|
6|-0-0--00---0-0-0---|

 Chorus:
1|-------------------|
2|-------------------|
3|-------------------|
4|-9-9--99-----------| x4
5|-9-9--99-----------|
6|-7-7--77---0-0-0---|

 Pre-verse:
1|--------------------------------------|
2|--------------------------------------|
3|--------------------------------------|
4|-2/1----2---2-2-----------------------| x8
5|-2/1----2---2-2-----------------------|
6|-0-0----0---0-0-----------------------|

 Verse part 1:
1|---------------|
2|---------------|
3|---------------|
4|-4~~~/5-6/7----| x6
5|-4~~~/5-6/7----|
6|-2~~~/3-4/5----|

 Verse part 2:
1|---------|
2|---------|
3|-3~~~~---|
4|-3~~~~---|
5|-1~~~~---|
6|---------|

 Verse part 1:
1|---------------|
2|---------------|
3|---------------|
4|-4~~~/5-6/7----| x5
5|-4~~~/5-6/7----|
6|-2~~~/3-4/5----|

 Verse part 3:
1|------------------|
2|------------------|
3|------------------|
4|-5/4---3/1--------| x1
5|-5/4---3/1--------|
6|-0-0---0-0--------|

 Verse part 2:
1|---------|
2|---------|
3|-3~~~~---|
4|-3~~~~---| x1
5|-1~~~~---|
6|---------|

 Chorus:
1|-------------------|
2|-------------------|
3|-------------------|
4|-2-2--22-----------| x4
5|-2-2--22-----------|
6|-0-0--00---0-0-0---|

 Chorus:
1|-------------------|
2|-------------------|
3|-------------------|
4|-9-9--99-----------| x4
5|-9-9--99-----------|
6|-7-7--77---0-0-0---|

 Pre-bridge: x8        ................x1
1|-------------------|-------------------|
2|-------------------|-------------------|
3|-------------------|-------------------|
4|-2/1----2---2-2----|----2/1------------|
5|-2/1----2---2-2----|----2/1------------|
6|-0-0----0---0-0----|----0-0------------|

 Bridge(guitar 1):
1|--------------------------------|
2|----15-----17-21-----17-17------|
3|--------------------------------|
4|-00---0---0-------00--------0-0-| x20
5|--------------------------------|
6|--------------------------------|

 Bridge(guitar 2):
1|----------------------|
2|----------------------|
3|----------------------|
4|-00-------------------| x12
5|-00-------------------|
6|-00-------------------|

 Bridge p. 2(guitar 2):
1|--------------------------------------|
2|--------------------------------------|
3|--------------------------------------|
4|-2/1----2---2-2-----------------------| x8
5|-2/1----2---2-2-----------------------|
6|-0-0----0---0-0-----------------------|

 Verse part 1:
1|---------------|
2|---------------|
3|---------------|
4|-4~~~/5-6/7----| x6
5|-4~~~/5-6/7----|
6|-2~~~/3-4/5----|

 Verse part 2:
1|---------|
2|---------|
3|-3~~~~---|
4|-3~~~~---| x1
5|-1~~~~---|
6|---------|

 Verse part 1:
1|---------------|
2|---------------|
3|---------------|
4|-4~~~/5-6/7----| x5
5|-4~~~/5-6/7----|
6|-2~~~/3-4/5----|

 Verse part 3:
1|------------------|
2|------------------|
3|------------------|
4|-5/4---3/1--------| x1
5|-5/4---3/1--------|
6|-0-0---0-0--------|

 Verse part 2:
1|---------|
2|---------|
3|-3~~~~---|
4|-3~~~~---| x1
5|-1~~~~---|
6|---------|

 Chorus:
1|-------------------|
2|-------------------|
3|-------------------|
4|-2-2--22-----------| x4
5|-2-2--22-----------|
6|-0-0--00---0-0-0---|

 Chorus:
1|-------------------|
2|-------------------|
3|-------------------|
4|-9-9--99-----------| x4
5|-9-9--99-----------|
6|-7-7--77---0-0-0---|

 Pre-chorus:
1|--------------------------------------|
2|--------------------------------------|
3|--------------------------------------|
4|-2/1----2---2-2-----------------------| x8
5|-2/1----2---2-2-----------------------|
6|-0-0----0---0-0-----------------------|

 Chorus:
1|-------------------|
2|-------------------|
3|-------------------|
4|-2-2--22-----------| x4
5|-2-2--22-----------|
6|-0-0--00---0-0-0---|

 Try with both i think it is like this.
 Chorus:
1|-------------------|
2|-------------------|
3|-------------------|
4|-9-9--99-----------| x4
5|-9-9--99-----------|
6|-7-7--77---0-0-0---|

Комментарий автора:

 DURING THE SONG THE GUITAR ONE MAKES A SOUND:         
 1|----------|                    
 2|----------|                    
 3|----------|                    
 4|-6^^^~~~~-|                    
 5|-0~~~~~~~-|                    
 6|----------|                    
 
 

Видео