Static X - Trance Is The Motion, аккорды

Прокрутка
Тональность
Шрифт
100
Tune CGCFAd

d-----12----------12-----------------
A------------------------------------
F------------------------------------
C-0--------0-0---------0-0-0-0-0--0-0
G-0--------0-0---------0-0-0-0-0--0-0 4x
C-0--------0-0---------0-0-0-0-0--0-0 

d---13-12`````------------13-12`````---------------
A--------------------------------------------------
F-------------9 10`````----------------9 10```````` 2x
C--------------------------------------------------
G--------------------------------------------------
C--------------------------------------------------

d------------------------------------
A------------------------------------
F------------------------------------
C-0`````--1`````---------------------
G-0`````--1`````---------------------
C-0`````--1`````---------------------
 
 

Видео