Static X - Cold, аккорды

Прокрутка
Тональность
Шрифт
100
Intro:
e|------------|
B|------------|
G|------------|
D|-4-4-4-4-4--|
A|-4-4-4-4-4--| X8
E|-2-2-2-2-2--|

Verse
e|------------|
B|------------|
G|------------|
D|-4-4-4-4-4--|
A|-4-4-4-4-4--| X9
E|-2-2-2-2-2--|

Chorus:
e|--------------------------|
B|--------------------------|
G|--------------------------|
D|----1---4-3-----1---4-3~/-|
A|-3~---3-----4-3~---3------| X2
E|--------------------------|

Verse
e|------------|
B|------------|
G|------------|
D|-4-4-4-4-4--|
A|-4-4-4-4-4--| X8
E|-2-2-2-2-2--|

Chorus:
e|--------------------------|
B|--------------------------|
G|--------------------------|
D|----1---4-3-----1---4-3~/-|
A|-3~---3-----4-3~---3------| X2
E|--------------------------|

Bridge:
e|------------|
B|------------|
G|------------|
D|-4-4-4-4-4--|
A|-4-4-4-4-4--| X4
E|-2-2-2-2-2--|

Chorus:
e|--------------------------|
B|--------------------------|
G|--------------------------|
D|----1---4-3-----1---4-3~/-|
A|-3~---3-----4-3~---3------| X7
E|--------------------------|

Outro:
e|------------|
B|------------|
G|------------|
D|-4-4-4-4-4--|
A|-4-4-4-4-4--| X4
E|-2-2-2-2-2--|
 
 

Видео