Static X - SOM, аккорды

Прокрутка
Тональность
Шрифт
100
Verse:
------------------------------|
------------------------------|
-7------10------9------8------|
-x-x16--x--x16--x-x16--x-x16--|
-5------8-------7------6------|
------------------------------|
   repeat a bunch of times                      

Guitar:
----------------------------------|-----|
----------------------------------|-----|
----------------------------------|-----|
-x0--56-x0-32-x0-56-x0-32-x0-565--|--5--|
-x0--56-x0-32-x0-56-x0-32-x0-565--|--5--|
-x0--56-x0-32-x0-56-x0-32-x0-565--|--5--|
       repeat       last time let it ring   
 
 

Видео