Static X - Cold, аккорды

Прокрутка
Тональность
Шрифт
100
Static X
Cold
Tuning: C-G-C-F-A-D
Tabbed by Emilio Graveran
 
very self-explanatory. any comments, send them to emiliograveran@hotmail.com

Intro & Verse
|---------------------------------------------------------------|
|---------------------------------------------------------------|
|---------------------------------------------------------------|
|---0-00-0-00-00---0-00-0-00-00---0-00-0-00-00---0-00-0-00-00---| 
|---0-00-0-00-00---0-00-0-00-00---0-00-0-00-00---0-00-0-00-00---|
|---0-00-0-00-00---0-00-0-00-00---0-00-0-00-00---0-00-0-00-00---|

Chorus
|---------------------------------------------------------------|
|---------------------------------------------------------------|
|---7~-7/107/1312~--5-----7~-7/1071312~--12---------------|
|---7~-7/107/1312~--5-----7~-7/1071312~--xx---------------| 
|---5~-5/8-5/1110~--3-----5~-5/8-5/1110~--10---------------|
|---------------------------------------------------------------|

|---------------------------------------------------------------|
|---------------------------------------------------------------|
|---7~-7/107/1312~--5-----7~-7/1071312~-------------------|
|---7~-7/107/1312~--5-----7~-7/1071312~-------------------| 
|---5~-5/8-5/1110~--3-----5~-5/8-5/1110~--12------------|
|----------------------------------------------12------------|

|---------------------------------------------------------------|
|---------------------------------------------------------------|
|---7~-7/107/1312~--5-----7~-7/1071312~--12---------------|
|---7~-7/107/1312~--5-----7~-7/1071312~--xx---------------| 
|---5~-5/8-5/1110~--3-----5~-5/8-5/1110~--10---------------|
|---------------------------------------------------------------|