Static X - Love dump, аккорды

Прокрутка
Тональность
Шрифт
100
Tuning: C F A# D# G C


INTRO
          x48
|-----------------|
|-----------------|
|-----------------|
|-----------------|
|-----------------|
|-3-3-5-5-5---5-5-|
 .........  ...

           x4
|-----------------|-------------------------------------------------|
|-----------------|-------------------------------------------------|
|-----------------|-15-15-15-15-15-15-15-15-15-15-15-15-15-15-15-15-|
|-2-2-2-2-2---2-2-|-------------------------------------------------|
|-2-2-2-2-2---2-2-|-13-13-13-13-13-13-13-13-13-13-13-13-13-13-13-13-|
|-0-0-0-0-0---0-0-|-------------------------------------------------|
 .........  ...

           x4
|-----------------|-------------------------------------------------|
|-----------------|-------------------------------------------------|
|-----------------|-15-15-15-15-15-15-15-15-15-15-15-15-15-15-15-15-|
|-2-2-2-2-2---2-2-|-------------------------------------------------|
|-2-2-2-2-2---2-2-|-13-13-13-13-13-13-13-13-13-13-13-13-13-13-13-13-|
|-0-0-0-0-0---0-0-|-------------------------------------------------|
 .........  ...

           x4
|-----------------|-------------------------------------------------|
|-----------------|-------------------------------------------------|
|-----------------|-15-15-15-15-15-15-15-15-15-15-15-15-15-15-15-15-|
|-2-2-2-2-2---2-2-|-------------------------------------------------|
|-2-2-2-2-2---2-2-|-13-13-13-13-13-13-13-13-13-13-13-13-13-13-13-13-|
|-0-0-0-0-0---0-0-|-------------------------------------------------|
 .........  ...

           x4
|-----------------|-------------------------------------------------|
|-----------------|-------------------------------------------------|
|-----------------|-15-15-15-15-15-15-15-15-15-15-15-15-16-16-16-16-|
|-2-2-2-2-2---2-2-|-------------------------------------------------|
|-2-2-2-2-2---2-2-|-13-13-13-13-13-13-13-13-13-13-13-13-14-14-14-14-|
|-0-0-0-0-0---0-0-|-------------------------------------------------|
 .........  ...


VESE

 Guitar 1
|-------------------------------------------------|
|-------------------------------------------------|
|-9--9--9--9--9--9--9--9--9--9--9--9--9--9--9--9--|
|-------------------------------------------------|
|-7--7--7--7--7--7--7--7--7--7--7--7--7--7--7--7--|
|-------------------------------------------------|
|Guitar 2
|-------------------------------------------------|
|-------------------------------------------------|
|-16-16-16-16-16-16-16-16-16-16-16-16-16-16-16-16-|
|-------------------------------------------------|
|-14-14-14-14-14-14-14-14-14-14-14-14-14-14-14-14-|
|-------------------------------------------------|

 Guitar 1
|-------------------------------------------------|
|-------------------------------------------------|
|-11-11-11-11-11-11-11-11-11-11-11-11-11-11-11-11-|
|-------------------------------------------------|
|-9--9--9--9--9--9--9--9--9--9--9--9--9--9--9--9--|
|-------------------------------------------------|
|Guitar 2
|-------------------------------------------------|
|-------------------------------------------------|
|-16-16-16-16-16-16-16-16-16-16-16-16-16-16-16-16-|
|-------------------------------------------------|
|-14-14-14-14-14-14-14-14-14-14-14-14-14-14-14-14-|
|-------------------------------------------------|

 Guitar 1
|-------------------------------------------------|
|-------------------------------------------------|
|-12-12-12-12-12-12-12-12-12-12-12-12-12-12-12-12-|
|-------------------------------------------------|
|-10-10-10-10-10-10-10-10-10-10-10-10-10-10-10-10-|
|-------------------------------------------------|
|Guitar 2
|-------------------------------------------------|
|-------------------------------------------------|
|-17-17-17-17-17-17-17-17-17-17-17-17-17-17-17-17-|
|-------------------------------------------------|
|-15-15-15-15-15-15-15-15-15-15-15-15-15-15-15-15-|
|-------------------------------------------------|

 Guitar 1
|-------------------------------------------------|
|-------------------------------------------------|
|-14-14-14-14-14-14-14-14-14-14-14-14-14-14-14-14-|
|-------------------------------------------------|
|-12-12-12-12-12-12-12-12-12-12-12-12-12-12-12-12-|
|-------------------------------------------------|
|Guitar 2
|-------------------------------------------------|
|-------------------------------------------------|
|-19-19-19-19-19-19-19-19-19-19-19-19-19-19-19-19-|
|-------------------------------------------------|
|-17-17-17-17-17-17-17-17-17-17-17-17-17-17-17-17-|
|-------------------------------------------------|


CHORUS
         x4
|--------------|
|--------------|
|--------------|
|-2-2-2-2-2----|
|-2-2-2-2-2----|
|-0-0-0-0-0----|
 .........


BIDGE
           x4
|-----------------|
|-----------------|
|-----------------|
|-----------------|
|-----------------|
|-3-3-5-5-5---5-5-|
 .........  ...

           x4
|-----------------|
|-----------------|
|-----------------|
|-2-2-2-2-2---2-2-|
|-2-2-2-2-2---2-2-|
|-0-0-0-0-0---0-0-|
 .........  ...

           x4
|-----------------|
|-----------------|
|-----------------|
|-----------------|
|-----------------|
|-3-3-5-5-5---5-5-|
 .........  ...

           x4
|-----------------|
|-----------------|
|-----------------|
|-2-2-2-2-2---2-2-|
|-2-2-2-2-2---2-2-|
|-0-0-0-0-0---0-0-|
 .........  ...

           x4
|-----------------|
|-----------------|
|-----------------|
|-5-5-7-7-7---7-7-|
|-5-5-7-7-7---7-7-|
|-3-3-5-5-5---5-5-|


CHORUS 2
         x4
|--------------|
|--------------|
|--------------|
|-2-2-2-2-2----|
|-2-2-2-2-2----|
|-0-0-0-0-0----|
 .........


VESE 2 - Play thelowing 2x

 Guitar 1
|-------------------------------------------------|
|-------------------------------------------------|
|-9--9--9--9--9--9--9--9--9--9--9--9--9--9--9--9--|
|-------------------------------------------------|
|-7--7--7--7--7--7--7--7--7--7--7--7--7--7--7--7--|
|-------------------------------------------------|
|Guitar 2
|-------------------------------------------------|
|-------------------------------------------------|
|-16-16-16-16-16-16-16-16-16-16-16-16-16-16-16-16-|
|-------------------------------------------------|
|-14-14-14-14-14-14-14-14-14-14-14-14-14-14-14-14-|
|-------------------------------------------------|

 Guitar 1
|-------------------------------------------------|
|-------------------------------------------------|
|-11-11-11-11-11-11-11-11-11-11-11-11-11-11-11-11-|
|-------------------------------------------------|
|-9--9--9--9--9--9--9--9--9--9--9--9--9--9--9--9--|
|-------------------------------------------------|
|Guitar 2
|-------------------------------------------------|
|-------------------------------------------------|
|-16-16-16-16-16-16-16-16-16-16-16-16-16-16-16-16-|
|-------------------------------------------------|
|-14-14-14-14-14-14-14-14-14-14-14-14-14-14-14-14-|
|-------------------------------------------------|

 Guitar 1
|-------------------------------------------------|
|-------------------------------------------------|
|-12-12-12-12-12-12-12-12-12-12-12-12-12-12-12-12-|
|-------------------------------------------------|
|-10-10-10-10-10-10-10-10-10-10-10-10-10-10-10-10-|
|-------------------------------------------------|
|Guitar 2
|-------------------------------------------------|
|-------------------------------------------------|
|-17-17-17-17-17-17-17-17-17-17-17-17-17-17-17-17-|
|-------------------------------------------------|
|-15-15-15-15-15-15-15-15-15-15-15-15-15-15-15-15-|
|-------------------------------------------------|

 Guitar 1
|-------------------------------------------------|
|-------------------------------------------------|
|-14-14-14-14-14-14-14-14-14-14-14-14-14-14-14-14-|
|-------------------------------------------------|
|-12-12-12-12-12-12-12-12-12-12-12-12-12-12-12-12-|
|-------------------------------------------------|
|Guitar 2
|-------------------------------------------------|
|-------------------------------------------------|
|-19-19-19-19-19-19-19-19-19-19-19-19-19-19-19-19-|
|-------------------------------------------------|
|-17-17-17-17-17-17-17-17-17-17-17-17-17-17-17-17-|
|-------------------------------------------------|


BIDGE 2
           x4
|-----------------|-------------------------------------------------|
|-----------------|-------------------------------------------------|
|-----------------|-15-15-15-15-15-15-15-15-15-15-15-15-15-15-15-15-|
|-2-2-2-2-2---2-2-|-------------------------------------------------|
|-2-2-2-2-2---2-2-|-13-13-13-13-13-13-13-13-13-13-13-13-13-13-13-13-|
|-0-0-0-0-0---0-0-|-------------------------------------------------|
 .........  ...

           x4
|-----------------|-------------------------------------------------|
|-----------------|-------------------------------------------------|
|-----------------|-15-15-15-15-15-15-15-15-15-15-15-15-15-15-15-15-|
|-2-2-2-2-2---2-2-|-------------------------------------------------|
|-2-2-2-2-2---2-2-|-13-13-13-13-13-13-13-13-13-13-13-13-13-13-13-13-|
|-0-0-0-0-0---0-0-|-------------------------------------------------|
 .........  ...

           x4
|-----------------|-------------------------------------------------|
|-----------------|-------------------------------------------------|
|-----------------|-15-15-15-15-15-15-15-15-15-15-15-15-15-15-15-15-|
|-2-2-2-2-2---2-2-|-------------------------------------------------|
|-2-2-2-2-2---2-2-|-13-13-13-13-13-13-13-13-13-13-13-13-13-13-13-13-|
|-0-0-0-0-0---0-0-|-------------------------------------------------|
 .........  ...

           x4
|-----------------|-------------------------------------------------|
|-----------------|-------------------------------------------------|
|-----------------|-15-15-15-15-15-15-15-15-15-15-15-15-16-16-16-16-|
|-2-2-2-2-2---2-2-|-------------------------------------------------|
|-2-2-2-2-2---2-2-|-13-13-13-13-13-13-13-13-13-13-13-13-14-14-14-14-|
|-0-0-0-0-0---0-0-|-------------------------------------------------|
 .........  ...


VESE 3 - Play thelowing 2x

 Guitar 1
|-------------------------------------------------|
|-------------------------------------------------|
|-9--9--9--9--9--9--9--9--9--9--9--9--9--9--9--9--|
|-------------------------------------------------|
|-7--7--7--7--7--7--7--7--7--7--7--7--7--7--7--7--|
|-------------------------------------------------|
|Guitar 2
|-------------------------------------------------|
|-------------------------------------------------|
|-16-16-16-16-16-16-16-16-16-16-16-16-16-16-16-16-|
|-------------------------------------------------|
|-14-14-14-14-14-14-14-14-14-14-14-14-14-14-14-14-|
|-------------------------------------------------|

 Guitar 1
|-------------------------------------------------|
|-------------------------------------------------|
|-11-11-11-11-11-11-11-11-11-11-11-11-11-11-11-11-|
|-------------------------------------------------|
|-9--9--9--9--9--9--9--9--9--9--9--9--9--9--9--9--|
|-------------------------------------------------|
|Guitar 2
|-------------------------------------------------|
|-------------------------------------------------|
|-16-16-16-16-16-16-16-16-16-16-16-16-16-16-16-16-|
|-------------------------------------------------|
|-14-14-14-14-14-14-14-14-14-14-14-14-14-14-14-14-|
|-------------------------------------------------|

 Guitar 1
|-------------------------------------------------|
|-------------------------------------------------|
|-12-12-12-12-12-12-12-12-12-12-12-12-12-12-12-12-|
|-------------------------------------------------|
|-10-10-10-10-10-10-10-10-10-10-10-10-10-10-10-10-|
|-------------------------------------------------|
|Guitar 2
|-------------------------------------------------|
|-------------------------------------------------|
|-17-17-17-17-17-17-17-17-17-17-17-17-17-17-17-17-|
|-------------------------------------------------|
|-15-15-15-15-15-15-15-15-15-15-15-15-15-15-15-15-|
|-------------------------------------------------|

 Guitar 1
|-------------------------------------------------|
|-------------------------------------------------|
|-14-14-14-14-14-14-14-14-14-14-14-14-14-14-14-14-|
|-------------------------------------------------|
|-12-12-12-12-12-12-12-12-12-12-12-12-12-12-12-12-|
|-------------------------------------------------|
|Guitar 2
|-------------------------------------------------|
|-------------------------------------------------|
|-19-19-19-19-19-19-19-19-19-19-19-19-19-19-19-19-|
|-------------------------------------------------|
|-17-17-17-17-17-17-17-17-17-17-17-17-17-17-17-17-|
|-------------------------------------------------|


BIDGE 3

           x4
|-----------------|-------------------------------------------------|
|-----------------|-------------------------------------------------|
|-----------------|-15-15-15-15-15-15-15-15-15-15-15-15-15-15-15-15-|
|-2-2-2-2-2---2-2-|-------------------------------------------------|
|-2-2-2-2-2---2-2-|-13-13-13-13-13-13-13-13-13-13-13-13-13-13-13-13-|
|-0-0-0-0-0---0-0-|-------------------------------------------------|
 .........  ...

           x2
|-----------------|
|-----------------|
|-----------------|
|-2-2-2-2-2---2-2-|
|-2-2-2-2-2---2-2-|
|-0-0-0-0-0---0-0-|
 .........  ...

End on
|--------------|
|--------------|
|--------------|
|-2-2-2-2-2----|
|-2-2-2-2-2----|
|-0-0-0-0-0----|
 .........

Комментарий автора:

Static X: Love Dump off of Wisconsin Death Trip.
this is the best song off the cd in my opinion.
 
 

Видео