Static X - Sweat of the bud, аккорды

Прокрутка
Тональность
Шрифт
100

Tuning: C F A# D# G C


Segue from Stem...

INTRO
       x16
|---------------------|
|---------------------|
|---------------------|
|-2-2--2-2--2--2--2-2-|
|-2-2--2-2--2--2--2-2-|
|-0-0--0-0--0--0--0-0-|
 ... ... . . ...

(=Harmonic)           x4
|--------------------------------------|
|--------------------------------------|
|--------------------------------------|
|--------------------------------------|
|--------------------------------------|
|-0--0--0-0-2.75-0--0--0-0-2.5-2-|
 . . ...     . . ...

             x4
|--------------------------------------|
|--------------------------------------|
|--------------------------------------|
|-2--2--2-2--------2--2--2-2-----------|
|-2--2--2-2--------2--2--2-2-----------|
|-0--0--0-0-2.75-0--0--0-0-2.5-2-|
 . . ...     . . ...


VERSE
             x4
|--------------------------------------|
|--------------------------------------|
|--------------------------------------|
|-2--2--2-2--------2--2--2-2-----------|
|-2--2--2-2--------2--2--2-2-----------|
|-0--0--0-0-2.75-0--0--0-0-2.5-2-|
 . . ...     . . ...


CHORUS
       x8
|---------------------|
|---------------------|
|---------------------|
|-2-2--2-2--2--2--2-2-|
|-2-2--2-2--2--2--2-2-|
|-0-0--0-0--0--0--0-0-|
 ... ... . . ...


VERSE 2
             x4
|--------------------------------------|
|--------------------------------------|
|--------------------------------------|
|-2--2--2-2--------2--2--2-2-----------|
|-2--2--2-2--------2--2--2-2-----------|
|-0--0--0-0-2.75-0--0--0-0-2.5-2-|
 . . ...     . . ...

             x4
|--------------------------------------|
|--------------------------------------|
|--------------------------------------|
|--------------------------------------|
|--------------------------------------|
|-0--0--0-0-2.75-0--0--0-0-2.5-2-|
 . . ...     . . ...


CHORUS 2
       x8
|---------------------|
|---------------------|
|---------------------|
|-2-2--2-2--2--2--2-2-|
|-2-2--2-2--2--2--2-2-|
|-0-0--0-0--0--0--0-0-|
 ... ... . . ...


BRIDGE - Bass only


INTERLUDE
           x8
|------------------|
|------------------|
|------------------|
|-2--2--2------3---|
|-2--2--2------3---|
|-0--0--0--0-0-1-0-|
 .......


CHORUS 3
       x8
|---------------------|
|---------------------|
|---------------------|
|-2-2--2-2--2--2--2-2-|
|-2-2--2-2--2--2--2-2-|
|-0-0--0-0--0--0--0-0-|
 ... ... . . ...


OUTRO
             x7
|--------------------------------------|
|--------------------------------------|
|--------------------------------------|
|-2--2--2-2--------2--2--2-2-----------|
|-2--2--2-2--------2--2--2-2-----------|
|-0--0--0-0-2.75-0--0--0-0-2.5-2-|
 . . ...     . . ...

End on
|------------------------------|
|------------------------------|
|------------------------------|
|-2--2--2-2--------2--2--2-2-2-|
|-2--2--2-2--------2--2--2-2-2-|
|-0--0--0-0-2.75-0--0--0-0-0-|
 . . ...     . . .....

Комментарий автора:

X===============================PLEASE NOTE==============================X
X This tab is all my own and represents my interpretation of the song. X
X You may only use this tab for private study, scholarship, or research. X
X Do not change, deface, mutilate, or in any other way alter this tab. X
X  You must email me first if you want to use this tab on your site.   X

Sweat of the Bud
Transcribed by Obscured@san.rr.com
Http://home.san.rr.com/obscured
 
 

Видео