Stewart Rod - Ooh La La (intro), аккорды

Прокрутка
Тональность
Шрифт
100
INTRO:
e:-----------------------------------|
B:-----------------------------------|
G:-2--2--2h4-2-----------0-0-0-------|
D:-------------4-0-2--2--------4-2---|
A:-----------------------------------|
E:-----------------------------------|
 
this is also the solo later on:
e:-----------------------------------|
B:-----------------------------------|
G:-2--2--2h4-2-----------0-0-0-------|
D:-------------4-0-2--2--------4-2---|
A:-----------------------------------|
E:-----------------------------------|
 
 

Видео