Stewart Rod - Hot Legs, аккорды

Прокрутка
Тональность
Шрифт
100
e|-----------------------------------|
B|-----10----10----10----10----10----|
G|--9b----9b----9b----9b----9b----9b|
D|-----------------------------------|
A|-----------------------------------|
E|-----------------------------------|

e|-----------------------------------|
B|------------8----8-----------------|
G|--5-7-5--7b---7b---7bp5---5--------|
D|------------------------7----------|
A|-----------------------------------|
E|-----------------------------------|

e|-----------------------------------|
B|-----5-----------7b-7b-------------|
G|--7b---7bp5------7b-7b-5-------5-7-|
D|------------7-5----------7-5h7-----|
A|-----------------------------------|
E|-----------------------------------|
|
hit this and slowly release v the bend
e|-----------------------------------|
B|-----8------7b--7b--------7b-------|
G|--7b---7b~--7b--7b-5------7b-------|
D|---------------------7-------------|
A|-----------------------------------|
E|-----------------------------------|

repeat this twice
e|-----------------------------------|
B|------------------------------15---|
G|--------12-15p14p12-14-12-14b---14b|
D|--12-14----------------------------|
A|-----------------------------------|
E|-----------------------------------|

e|-----------------------------------|
B|--15b----20-17-20-17---------------|
G|---------------------19b-----------|
D|-------------------------19b-17----|
A|-----------------------------------|
E|-----------------------------------|

e|-----------------------------------|
B|-----------------------------------|
G|--16-16--16-16--15b----------------|
D|--19-19--19-19--19--17p15-17-------|
A|-----------------------------------|
E|-----------------------------------|

e|-----------------------19-19b-19---|
B|--17-17-17b--17-17-17b-------------|
G|-----------------------------------|
D|-----------------------------------|
A|-----------------------------------|
E|-----------------------------------|

e|----------------------12-----------|
B|--17b-17-15--17-15------15-12------|
G|-------------------14b--------14b--|
D|-----------------------------------|
A|-----------------------------------|
E|-----------------------------------|

e|-----------------------------------|
B|--12-------------------------------|
G|----14bp12-----12-12--12-12-------|
D|-----------14--14-14--14-14-------|
A|-----------------------------------|
E|-----------------------------------|
 
 

Видео