Sting - Shape Of My Heart (intro), аккорды

Прокрутка
Тональность
Шрифт
100
Intro:
e|-5---5-|-4---4-|-2---2-|-2-4-
B|-------|-------|-------|-----
G|---6---|---4---|---2---|-----
D|-4-----|-2-----|-0-----|-0---
A|-------|-------|-------|---2-
E|-------|-------|-------|-----

e|-5---5-|-4---4-|-2---2-|-2-1-
B|-------|-------|-------|-----
G|---6---|---4---|---2---|-----
D|-4-----|-2-----|-0-----|-0---
A|-------|-------|-------|---3-
E|-------|-------|-------|-----

Комментарий автора:

Вступление можно играть и на других ладах, но мне кажется, моя версия наиболее 
легко играется.
 
 

Видео