Sting - When we dance, аккорды

Прокрутка
Тональность
Шрифт
100
Intro:

E|-----------------------------------|
B|--4-4-4-4-4-4-4-4-5-5-5-5-5-5-5-5--|
G|-----------------------------------|
D|-----------------------------------|
A|-----------------------------------|
E|-----------------------------------|

                E                 E
E|-----------|--0--|-----------|--0--|
B|-----------|--0--|-----------|--0--|
G|-----------|--1--|-----------|--1--|
D|--4-6-4-6--|--2--|--4-6-4-6--|--2--|
A|-----------|--2--|-----------|--2--|
E|--0--------|--0--|--0--------|--0--|


       E
If he loved you
        E   Bmaj7sus*  E
Like I love you,
        C#m
I would walk away in shame.
          E
I'd move town, I'd change my name.
         E
When he watches you,
         E           Bmaj7sus*   E
When he counts to buy your soul,
        C#m
On your hand his golden rings
         E
Like he owns a bird that sings.


         B      E          A                E
When we dance, angels will run and hide their wings.


         E
E|-------0--|
B|--4-5--0--|
G|-------1--|
D|-------2--|
A|-------2--|
E|-------0--|
             The priest has said my soul's salvation

         E
E|-------0--|
B|--4-5--0--|
G|-------1--|
D|-------2--|
A|-------2--|
E|-------0--|
             Is in the balance of the angels

        C#m
E|-------4--|
B|--4-5--5--|
G|-------6--|
D|-------6--|
A|-------4--|
E|-------4--|
             And underneath the wheels of passion

         E
E|-------0--|
B|--4-5--0--|
G|-------1--|
D|-------2--|
A|-------2--|
E|-------0--|
             I keep the faith in my fashion.


         B      E          A               E        C#m A
When we dance, angels will run and hide their wings.


                        I'm still in love with you
E|-------0---|--------0------|--------4---|--------0--|
B|--4-5--0---|---4-5--0------|---4-5--5---|---4-5--0--|
G|-------1---|--------1--3---|--------6---|--------1--|
D|-------2---|--------2------|--------6---|--------2--|
A|-------2---|--------2------|--------4---|--------2--|
E|-------0---|--------0------|--------4---|--------0--|


         B      E          A                F#m      D
When we dance, angels will run and hide their wings.
         B      E          A               E        C#m A
When we dance, angels will run and hide their wings.


F#sus4          F#               C#
    If I could break down these walls

    And shout my name at heaven's gate,
F#sus4              F#               C#
    I'd take these hands And I'd destroy

    The dark machineries of fate.
F#sus4              F#
    Cathedrals are broken,
A
  Heaven's no longer above.
A
  Hellfire's a promise away

  I'd still be saying
       E
  I'm still in love, still in love, still in love,
       C#m             A
   ...still in love, still in love...
       E
   -------------------
       C#m
   -------------------


C# C#sus  F#      
He won't love you
        F#  C#maj7sus* F#
Like I love you,
         Ebm
He won't care for you this way,
           F#
He'll mistreat you if you stay.
          F#
Come and live with me.
            F#      C#maj7sus* F#
We'll have children of our own.
        Ebm
I would love you more than life
           F#
If you'll come and be my wife.


         C#    F#           B              G#m7     E
When we dance, angels will run and hide their wings.
         C#    F#           B              G#m7     E
When we dance, angels will run and hide their wings.
         C#    F#           B              G#m7     E
When we dance, angels will run and hide their wings.
         F#     Ebm B
When we dance...

F#  Ebm  B
F#  Ebm  B
F#  Ebm  B
   

E|---------------------|---------------------|
B|---------------------|---------------------|
G|---------------------|---------------------|
D|--4------------------|---------------------|
A|--4-------4---6---4--|----------4---6---4--|
E|--2---4-6------------|--2---4-6------------|


  I had a dream last night
E|----------------------------------------|
B|----------------------------------------|
G|----------------------------------------|
D|----------------------------------------|
A|-----------------------------4---6---4--|
E|---------------------2---4-6------------|

  I dreamt you were by my side
E|----------------------------------------|
B|----------------------------------------|
G|----------------------------------------|
D|----------------------------------------|
A|-----------------------------4---6---4--|
E|---------------------2---4-6------------|

  Walking with me, baby
E|----------------------------------------|
B|----------------------------------------|
G|----------------------------------------|
D|----------------------------------------|
A|-----------------------------4---6---4--|
E|---------------------2---4-6------------|

  My heart was filled with pride
E|----------------------------------------|
B|----------------------------------------|
G|----------------------------------------|
D|----------------------------------------|
A|-----------------------------4---6---4--|
E|---------------------2---4-6------------|

  I had a dream last night...
E|----------------------------------------|
B|----------------------------------------|
G|----------------------------------------|
D|----------------------------------------|
A|-----------------------------4---6---4--|
E|---------------------2---4-6------------| 

Комментарий автора:

* Bmaj7sus:       * C#maj7sus:
  E|-------|        E|---2---|
  B|-------|        B|---2---|
  G|---3---|        G|---5---|
  D|---2---|        D|---4---|
  A|---2---|        A|---4---|
  E|---0---|        E|---2---| 
 
 
Свернуть Распечатать

Аппликатуры аккордов

Аккорд EАккорд C#mАккорд BАккорд AАккорд F#mАккорд DАккорд F#sus4Аккорд F#Аккорд C#Аккорд C#susАккорд EbmАккорд G#m7
Pin0cchi0Pin0cchi0
автор подбора аккордов
495 0 30.01.2022

Видео