Sting - Every Breath You Take, аккорды

Прокрутка
Тональность
Шрифт
100
Main Riff:
e----------------------------------
B----------------------------------
G----------2-------4----2----0-----
D------0-------0-----------------0-
A----------------------------------
E---3------------------------------
    
Bridge:
e---------------------------------------
B---------------------------------------
G-----------------------0---------------
D--------------4------------4---------4- x2
A---------2--------2-------------2------
E-----0---------------------------------

e-----------------------------------
B---------------------3-------------
G-------------5-----------5-------5-
D---------5-------5-----------5----- x2
A-----3-----------------------------
E-----------------------------------

e-----------------------------------
B---------------------5-------------
G-------------7-----------7-------7-
D---------7-------7-----------7----- x2
A-----5-----------------------------
E-----------------------------------

e-----------------------------------
B---------------------7-------------
G-------------9-----------9-------9-
D---------9-------9-----------9----- x2
A-----7-----------------------------
E-----------------------------------

e--------------------------------------
B---------------------9----------------
G-------------11-----------11-------11-
D---------11-------11-----------11-----
A-----9--------------------------------
E--------------------------------------
 
 

Видео