Sting - Every Breath You Take, аккорды

Прокрутка
Тональность
Шрифт
100
e|------------------------|
B|-------------0----------|
G|-------2-----------2----|
D|----0-----0-----0-----0-|x2
A|------------------------|
E|-3----------------------|

e|------------------------|
B|------------------------|
G|-------------0----------|
D|-------4-----------4----| x2
A|----2-----2-----2-----2-|    
E|-0----------------------|

e|------------------------|
B|-------3-----1----------|
G|----0-----0-----0-----0-|
D|------------------------| 
A|-3-----------------3----|
E|------------------------|

e|-------0----------------|
B|-------------3----------|
G|----2-----2-----2-----2-|
D|-0-----------------0----|
A|------------------------|
E|------------------------|
 
 

Видео