Sting - I Burn For You, аккорды

Прокрутка
Тональность
Шрифт
100
Song: I Burn For You
Artist: Sting
Album: Bring on the Night (Live Album) 1986
Tabbed by: Franco Spisso (jereth@vampirehunter.com)

This is only part of the song after Sting is done singing.
Also please be gentle it's my first tab.

the part starts at 3:09 i may be a second off
Standard Tuning

G|-5-7-7-7-7-5-----5-5
D|7-----------7-5-5---7
A|---------------------
E|---------------------

G|-5-7-7-7-7-5-----------
D|7-----------7-5-5-3-2-0
A|-----------------------
E|-----------------------

If anyone knows the rest of the song it'd be helpful, just give me some 
credit for figuring this part out.