Sting - Shape Of My Heart, аккорды

Прокрутка
Тональность
Шрифт
100
Pick with fingers:
  F#m         E          D          D   E 
|-------------------------------------------|
|-10----10----9-----9----7-----7----7---9---|
|-------------------------------------------|
|----11----------9----------7---------------|
|-9-----------7----------5----------5---7---|
|-------------------------------------------|

  F#m         E          D          D   C#
|-------------------------------------------|
|-10----10----9-----9----7-----7----7---6---|
|-------------------------------------------|
|----11----------9----------7---------------|
|-9-----------7----------5----------5---4---|
|-------------------------------------------|

just to get you started
 
 

Видео