Sting - Shape Of My Heart (btab), аккорды

Прокрутка
Тональность
Шрифт
100
Main Riff:
G|------------------------------------------------------------------------------------|
D|------------------------------------------------------------------------------------|
A|-9--------7--------5--------5--------4--------9--------7--------5--------5--------4-|
E|------------------------------------------------------------------------------------|
            spades   swords   sol-     dier              clubs    war

G|---------------------------------------------------------|
D|---------------------------------------------------------|
A|-------------------4--------4--------5--------4----------|
E|-7--------5--------------------------------------------2-|
            diamonds money    art      that's   shape    heart

Chorus:
G|------------------------------------------------------------|
D|-------------------------------------------------------4----|
A|-5--------4-----------------5--------4--------4-------------|
E|-------------------2----------------------------------------|
Later on it goes, that's not the shape, shape of my heaaaaaaaart.
 
 

Видео