Stone Sour - Get Inside, аккорды

Прокрутка
Тональность
Шрифт
100
'Sup, it's Carson again. This is my tab for Get Inside. Great song. The best on
the CD in my opinion. Tune your bass down to dropped D and 1 and 1/2 steps down

(B F# B E). There are no double-digit numbers in this tab.

Intro/Outro Riff A(incredibly fast):
E |-------------------------------------------|
B |-------------------------------------------|
F#|-------------------------------------------|x3
B |22110000221100002211002211000022110000-5-6-|

Riff B
E |-----------------------------------------------|
B |-----------------------------------------------|
F#|-----------------------------------------------|
B |22110000221100002211002211000022110000-5-6--021|

Pre-Verse:
E |---------------------------------------------------------|
B |---------------------------------------------------------|
F#|----------------------------------------------------5-6-3|x2
B |0--0-0-0--5--0-0--0-1-0-1-0-1-0--0-0-0--5--0-0--0-1------|

Verse:
E |--------------------------------------------------------|
B |--------------------------------------------------------|
F#|------------------------------------------------------55|x2
B |0-0---00-0-0---0-0--0-10-15--0-0---00-0-0---0-0--0-65---|

Pre-Chorus:
E |-----------------------------------------------------------------|
B |-----------------------------------------------------------------|
F#|6--5---6--5---6--5-------------6--5---6--5---6--5----------------|
B |---------------------1-0-6-5------------------------3-0-3-5-6-5--|

Chorus:
E |----------------------------|
B |----------------------------|
F#|----------------------------|x4
B |3-5--0--0-3-0-3-5--0-6-5-3-0|

Interlude:
E |---------------|
B |---------------|
F#|---------------|x8
B |5-6-5-0-1-2-3-0|

Order:
Intro
Pre- Verse
Verse
Pre-Chorus
Chorus
Pre-Verse
Verse
Pre-Chorus
Chorus
Interlude
Pre-Verse
Verse
Pre-Chorus
Chorus
Outro w/out Riff B(Riff A is played 4 times instead of 3)
 
 

Видео