Stroke 9 - Tail Of The Sun, аккорды

Прокрутка
Тональность
Шрифт
100
TAIL OF THE SUN - Stroke 9


By:Andrea...
This should be all right...it's kind of the easy version, but it sounds like the song

e|-0--XX--0--2^4--4-0----2-0----2-0---------------|
B|-0--XX--0-------2---2--0---0--0-----4--XX-------|
G|-1--XX--1-------2---2--1---1--1-----4--XX-------|
D|-2--XX--2-------2------2------2-----4--XX-------| 
A|-0--XX--0---------------------------2--XX-------|
E|-0--XX--0---------------------------------------|
     (pm)
repeat that a lot


  this part comes after chords played in the chorus, which is just A and E, listen to song to hear pattern:

e|--222222----000000-----------2----------|
B|--333333----222222-----------2----------|
G|--222222----222222-----------2----------|
D|--000000----222222-----------4----------|
A|------------000000--2-4-5----4----------|
E|-----------------------------2----------|


then there's more A and E and some of the first part which just repeats more.
Enjoy! :D
And if you haven't heard Stroke 9 buy their cd Nasty Little Thoughts, it's great!
 
 

Видео