Stroke 9 - Vacuum Bag, аккорды

Прокрутка
Тональность
Шрифт
100
Submitted by: SOAD123abc

Song: Vacuum bag
Tuning: Normal

Intro:
E|-------------------------------------------
B|-------------------------------------------
G|-----8-----8---8--------5-----5---5-------
D|---8-----8-------x3---5-----5-------x2----
A|-6-----6-----6------3-----3-----3---------
E|-------------------------------------------

E|-------------------------------|
B|-------------------------------|
G|-------------------------------|
D|-----0-----0---0-----8-8-7-5---|
A|---8-----8---------6---------7-|
E|-6-----6-----6---4-------------|
 
 

Видео