Stroke 9 - Vacuum Bag, аккорды

Прокрутка
Тональность
Шрифт
100
-------------------------------------------------------------------------------
			     Vacuum Bag - Stroke 9 
-------------------------------------------------------------------------------
Tabbed by: К-panda

Tuning: Standard

Intro:
e|-----------------------------------------------------|
B|-----------------------------------------------------|
G|---8--8-8----8-- 8-8---------------------------------|
D|--8--8------8-- 8---------------------8-8-6-5--------|
A|-6--6--6---------------8-6--8-6--6---6-------8-------|
E|-----------8---8--8---6----6----6---4----------------|

Chorus:
e|-----------------------|
B|-----------------------|
G|-8-----------8---------|
D|-8-10-8-6-8--8-10-8-6--|
A|-6-10-8-6-8--6-10-8-6--|
E|----8-6-4-6-----8-6-4--|
 
 

Видео