Stromae - Alors On Danse, аккорды

Прокрутка
Тональность
Шрифт
100
INTRO/VERSE:
1st Guitar:
e|--------------------------------------------------------------------------|
B|--------------------------------------------------------------------------|
G|--------------------------------------------------------------------------|
D|-----6---6-6---2-7-1--1-1-------------------------------------------------|
A|---4----------------------------------------------------------------------|
E|-4------------------------------------------------------------------------|

2nd Guitar (could play these chords):
   G#m           Em     C#m
e|-4-------------0------4---------------------------------------------------|
B|-4-------------0------5---------------------------------------------------|
G|-4-------------0------6---------------------------------------------------|
D|-6-------------2------6---------------------------------------------------|
A|-6-------------2------4---------------------------------------------------|
E|-4-------------0------x---------------------------------------------------|

CHORUS:
1st Guitar:
e|--------------------------------------------------------------------------|
B|--------------------------------------------------------------------------|
G|--------------------------------------------------------------------------|
D|--------------------------------------------------------------------------|
A|--7~---7-7~---7-7-9-6~----------------------------------------------------|
E|--------------------------------------------------------------------------|

2nd Guitar (could play these chords):
    Bm            C#m Bbm
e|--2---------------4-1-----------------------------------------------------|
B|--3---------------5-2-----------------------------------------------------|
G|--4---------------6-3-----------------------------------------------------|
D|--4---------------6-3-----------------------------------------------------|
A|--2---------------4-1-----------------------------------------------------|
E|--2---------------x-x-----------------------------------------------------|

3rd Guitar:
e|--------------------------------------------------------------------------|
B|--------------------------------------------------------------------------|
G|--------------------------------------------------------------------------|
D|-----6---6-6---2-7-1--1-1-------------------------------------------------|
A|---4----------------------------------------------------------------------|
E|-4------------------------------------------------------------------------|

BRIDGE:
2nd Guitar:
    F#m     Em    D#m    F#m
e|--9-------7-----6------9--------------------------------------------------|
B|--10------8-----7------10-------------------------------------------------|
G|--11------9-----8------11-------------------------------------------------|
D|--11------9-----8------11-------------------------------------------------|
A|--9-------7-----7------9--------------------------------------------------|
E|--x-------x-----x------x--------------------------------------------------|

Комментарий автора:

 ~   vibrato/ let ring
 
 

Видео