Stromae - Alors On Danse, аккорды

Прокрутка
Тональность
Шрифт
100
Intro/Verse:
e|--------------------------------------------------------------------------|
B|--------------------------------------------------------------------------|
G|-----------------2--------------------------------------------------------|
D|-----6---6-6---2---1--1-1-------------------------------------------------|
A|---4----------------------------------------------------------------------|
E|-4------------------------------------------------------------------------|

Chorus:
e|--------------------------------------------------------------------------|
B|--------------------------------------------------------------------------|
G|--------------------------------------------------------------------------|
D|-2~---2-2~----2-4-2-1~----------------------------------------------------|
A|--------------------------------------------------------------------------|
E|--------------------------------------------------------------------------|
 
 

Видео