Strung Out - Ultimate Devotion, аккорды

Прокрутка
Тональность
Шрифт
100
Song:Ultimate Devotion
Band:Strung Out 
Album: Twisted by Design
tabbed by: Alberto zorrico3@yahoo.com

                  FULL D TUNING           
                           
verse 1 
F:----------------------------
C:----------------------------
G:-----5>-------5>------------   1st part
D:--2>----5>-2>----5>-5-4-2>--

F:----------------------
C:--2>----0>-2>---------
G:----------------------  2nd part
D:-----2>-------5-4-2>--

F:------------------
C:------------------
G:--5>-7>-5>-7>-4>--  3rd part
D:------------------

over solo play 1st part

verse 1

verse 2 
F:-------------------------------------------------
C:--0>----0>-2>----0>----0>-2>---------------------
G:------------------------------------------------- 
D:-----2>-------2>----2>-------5-4>-2-4-4-4-4-5-4--

play the 2nd & 3rd part of verse 1

end on
F:---------
C:---------
G:--4-4-4-- 
D:---------
 
 

Видео