Styx - Blue Collar Man, аккорды

Прокрутка
Тональность
Шрифт
100
-----------------------------------------------------------------------
BLUE COLLAR MANЎVStyx 
-----------------------------------------------------------------------
Tabbed By: JScott
E-mail: penobypost@hotmail.com
One of the better Styx songs

Tuning: Standard
Intro
G|--------------------------------------------------------------------|
D|-------------------------0-3-2-0------------------------------------|
A|5555-5555-5555-555-0-1-3---------3-5--------------------------------|
E|--------------------------------------------------------------------|

Verse
G|--------------------------------------------------------------------|
D|-------2-3-5-----5-7-8------------------------2-3-5---5-7-8---------|
A|5-0-5---------5---------3-0-3-5-5--035--5-0-5-------5---------------|
E|-------------------------3------------------------------------------|

Verse
G|--------------------------------------------------------------------|
D|-------2-3-5-----5-7-8-----------5-3-2------------------------------|
A|5-0-5---------5---------3--3210-------------------------------------|
E|-------------------------3------------------------------------------|


Chorus
G|--------------------------------------------------------------------|
D|----------------------------------------0-3-2-0---------------------|
A|5555-5555--1-3--3--5-5--5555--555-0-1-3---------3-5-----------------|
E|--------------------------------------------------------------------|

Bridge
G|--------------------------------------------------------------------|
D|-----------------------------------20-32-53-75-8--------------------|
A|5555-5555-3333-3333-1111-1111--555----------------------------------|
E|--------------------------------------------------------------------|

Solo (*Repeat Verse)
G|--------------------------------------------------------------------|
D|--------------------------------------------------------------------|
A|0000-0000*----------------------------------------------------------|
E|--------------------------------------------------------------------|

Last Chorus/End					     „І--(Repeat 2x)---„і
G|--------------------------------------------------------------------|
D|----------------------------------------0-3-2-0----------0-3-2-0----|
A|5555-5555--1-3--3--5-5--5555--555-0-1-3---------3-5--1-3---------3-5|
E|--------------------------------------------------------------------|

This is basically it, a little variation throughout.
Listen to the CD for the correct timing.
 
 

Видео