Styx - Come Sail Away, аккорды

Прокрутка
Тональность
Шрифт
100
fig.1     repeat 3x
e------------------------------------------------
b------------------------------------------------
g-5----10-x-10-10-x-x-12---10-x-10-10-x-x-5------
d-5----10-x-10-10-x-x-12---10-x-10-10-x-x-5------
a-3-----8-x--8--8-x-x-10----8-x--8--8-x-x-3------
e------------------------------------------------
  ^only play this the first time
                                              
fig.2                                   fig.3
e------------------------------------   -------------
b------------------------------------   -------------
g-10-x-10-10-x-x-12---10-x-10-10-x-x-   -5-x-x-5-x---
d-10-x-10-10-x-x-12---10-x-10-10-x-x-   -5-x-x-5-x---
a--8-x--8--8-x-x-10----8-x--8--8-x-x-   -3-x-x-3-x---
e------------------------------------   -------------

fig.3(continued)
e-------------------------------------------------
b-------------------------------------------------
g-10-10-x-10-x-x-12-x-x-12-x-10-10-x-10-x-x-------
d-10-10-x-10-x-x-12-x-x-12-x-10-10-x-10-x-x-------
a--8--8-x--8-x-x-10-x-x-10-x--8--8-x--8-x-x-------
e-------------------------------------------------
   fig.3 goes along with the words 
 
 

Видео