Styx - Lady95, аккорды

Прокрутка
Тональность
Шрифт
100
I couldnt tab out the intro

---------------------------|
---------------------------|
-7-------5-------7-------5-|
-7-------5-------7-------5-|
-5-------3-------5-------3-|
---------------------------|

---------------------------------------------------------|
---------------------------------------------------------|
-2-5--7-7-7-7-7--7--7--7--7--7--5-5-5-5-5--5--5--5--5--5-|
-2-5--7-7-7-7-7--7--7--7--7--7--5-5-5-5-5--5--5--5--5--5-|
-0-3--5-5-5-5-5--5--5--5--5--5--3-3-3-3-3--3--3--3--3--3-|
---------------------------------------------------------|
      
 
 

Видео