Sugarfree - Hintay, аккорды

Прокрутка
Тональность
Шрифт
100
Intro: G - G/A - C9  

 G             G/A     C9 
Mabilis ang ikot ng mundo 
Sa kakasabay nahihilo ako 
Isang hakbang sa limang patlang 
 G      G/A       C9    D  
May panahon, pagkakataong 
 
REFRAIN:
 C9         D       G - G/F# - Em/G  
Nawawala kapag di hinawakan 
Dudulas kapag di iningatan, 
 Am          C  
hoy, hoy, hoy, hoy 
 
CHORUS:
 G    G/A   C9
Hintay, hintayin mo ako 
 Em        G/F#       C9  
Mahirap nang maiwan dito 
 G    G/A   C9
Hintay, hintayin ako 
 Em        G/F#     C9  
Dahan dahan lang hoy 
 
BASE:  G   A   C  

LEAD: ----3 2 0-------------10-8-7-7p8p7---------------| 
      ----------3s12---------------------8-7-----------| 
      --------------------------------------7----------| 
      -------------------------------------------------| 
      -------------------------------------------------| 
      -------------------------------------------------|  
 
VESRSE 2:
------------3----------| 
-----3--------3--------| 
-------0--------0------| 
-----------------------| 
-----------------------| 
-----------------------| 
Mabilis ang galaw ng oras 

------------3--------2------------------| 
-----3--------3--------3----------------| 
-------0--------0--------0--------------| 
----------------------------------------| 
----------------------------------------| 
----------------------------------------| 
Sa kakasabay nauubos ang lakas 

D 
Bilis na mahirap sabayan 
 G             G/A          C9  
Kung may panahon, pagkakataong 
 
REFRAIN
 
 

Видео