Sum 41 - Time For You To Go, аккорды

Прокрутка
Тональность
Шрифт
100
Intro: A5/B5 B5 A5 B5 B5 A5 B5 B5 B5 A5 E5 B5  x4
 
Verse 1:
     B                D
     Going in alone, did my time and now I'm done
         A   E
     It's so easy
           B                   D             A
     All the faces that I see don't mean anything at all to me
            E
     But you've got me going now


Pre-Chorus 1 (here E5 means the power chord in the 7th fret):
    E5            B5       E5         B5     A5
     Out of my mind and it's   a hell of a time, yeah

Chorus 1:
B              D           A
     I don't wanna say what I don't mean
           E                B
     But I'm trying just to let you know
           D            A
     That I don't wanna cause a scene
         E                       B
     But I'm sorry girl, it's time for you to go

Intro   x2

Verse 2:
     B                D                     A
     I'll tell you everything that you know you never wanna hear
              E
     Cause' it's true
           B                   D             A
     I'd give you all I've got but there's nothing there that you could use
            E
     Oh, you've got me going now

Pre-Chorus 2:
       E5            B5       E5         B5     A5
     Out of my mind and it's a hell of a time with you now, yeah
   
Chorus 2:
B              D           A
     I don't wanna say what I don't mean
           E                B
     But I'm trying just to let you know
           D            A
     That I don't wanna cause a scene
         E                       B
     But I'm sorry girl, it's time for you to go

Chorus 3:
B              D           A
     I don't wanna say what I don't mean
           E                B
     But I'm trying just to let you know
           D            A
     That I don't wanna cause a scene
         E                       B
     But I'm sorry girl, it's time for you to go

Bridge: B A B | B A B | B A B | A E     x2

[Guitar Solo]

e|----------------------------------------------------------------------------|
B|----------------------------------------------------------------------------|
G|--/11-11-11-11-11-11-11-9----------------------------9----------------------|
D|--------------------------12-9-9-9-12-9-12-9----9-12---12-9-9---------------|
A|---------------------------------------------12-----------------------------|
E|----------------------------------------------------------------------------|



e|----------------------------------------------------------------------------|
B|----------------------------------------------------------------------------|
G|-------------7-----------------/9-9-9-/11-11-11-/13-13-13-/14-14-14-/16----|
D|-------7h8h9---9-7-9-7------------------------------------------------------|
A|-7h8h9-----------------9----------------------------------------------------|
E|-------------------------7-7------------------------------------------------|

 B D A E

Verse 2 muted:
     B                D                     A
     I'll tell you everything that you know you never wanna hear
              E
     Cause' it's true
           B                   D             A
     I'd give you all I've got but I'm the only thing you'd use
            E
     You've got me going now

Chorus 4:
      B              D           A
     I don't wanna say what I don't mean
           E                B
     But I'm trying just to let you know
           D            A
     That I don't wanna cause a scene
         E                       B
     But I'm sorry girl, it's time for you to go

Chorus 5:
         B              D           A
     I don't wanna say what I don't mean
           E                B
     But I'm trying just to let you know
           D            A
     That I don't wanna cause a scene
         E                       B
     But I'm sorry girl, it's time for you to go

Intro x2
 
 

Видео