Sum 41 - Pain For Pleasure, аккорды

Прокрутка
Тональность
Шрифт
100
DADGBE Tuning

Intro:
Guitar 1 plays this
[------------------------------------------------------------------------------
------------------------------------------------------------------------------
-8-888-888-888888-8-888-888-888888--------------------------------------------
-8-888-888-888888-8-888-888-888888--------------------------------------------
-6-666-666-666666-6-666-666-666666--------------------------------------------
------------------------------------------------------------------------------]
 pm...............................
Guitar 2 fades into this over Guitar 1
[------------------------------------------------------------------------------
------------------------------------------------------------------------------
-8-888-888-888888--10-10-10-10-10-----11-11-11----------13-13-13-13-13--------
-8-888-888-888888--10-10-10-10-10-----11-11-11----------13-13-13-13-13--------
-6-666-666-666666--8--8--8--8--8------9--9--9-----------11-11-11-11-11--------
------------------------------------------------------------------------------]
 pm..............................

RIFF 1
Guitar 1's riff: guitar 1 plays alone the first time
[-----------------------------------------------------------------------------
-----------------------------------------------------------------------------
-8-8------------6-6----------------------------------------------------------
-8-8--3/4-3-1---6-6--3/4-3-1---9-9--3/4-3-1---8-8-3/4-3-1-----6-4-2----------
-6-6------------4-4------------9-9------------8-8-------------------4--------
-------------------------------9-9------------8-8----------------------------]
Guitar 2's riff: the second time, guitar 2 plays this over guitar 1
[-----------------------------------------------------------------------------
-----------------------------------------------------------------------------
-8-8------------6-6----------------------------------------------------------
-8-8--7/8-6-----6-6--7/8-6-----9-9--7/8-6---------------------9-8-6-4--------
-6-6--------9---4-4--------9---9-9--------9----------------------------------
-------------------------------9-9-------------------------------------------]

RIFF 2
Both guitars play this in unison, guitar 3 plays riff 3 (below)
[--6-4---4-------6-4---4-------6-4---4-------6-4---4------6-4---4--------------
------7---7-6-------7---7-4-------7---7-6-------7---7--4-----7---7-6----------
------------------------------------------------------------------------------
------------------------------------------------------------------------------
------------------------------------------------------------------------------
------------------------------------------------------------------------------]

RIFF 3
Guitar 1 plays this
[------------------------------------------------------------------------------
------------------------------------------------------------------------------
-8-888-888-888-8888888---6-666-666-666-66666666-------------------------------
-8-888-888-888-8888888---6-666-666-666-66666666--9-999-999-9999999-8888888----
-6-666-666-666-6666666---4-444-444-444-44444444--9-999-999-9999999-8888888----
-------------------------------------------------9-999-999-9999999-8888888----]
 pm.......................................................................
Guitar plays this to accentuate certain chords, listen to the song for which
ones
[------------------------------------------------------------------------------
------------------------------------------------------------------------------
-8--86--6---------8-86--6---------8-8/10-10/11-11/13----------------------
-8--86--69--98-8/8-86--69--98-8/8-8/10-10/11-11/13----------------------
-6--64--49--98-8/6-64--49--98-8/6-6/8--8-/9--9-/11----------------------
-----------9--98-8/---------9--98-8/----------------------------------------]

ENDING:
Let guitar 1 continue playing Riff 3 while guitar 2 plays this to end the song
[-----------------------------------------------------------------------------
-----------------------------------------------------------------------------
-8--11-8---8--4-4-4--6-6-6--8-----8-6-8-------------------------------------
-8--11-8---8--4-4-4--6-6-6--8-----8-6-8-------------------------------------
-6--9--6---6--2-2-2--4-4-4--6-----6-4-6-------------------------------------
-----------------------------------------------------------------------------]
Play this part 2x            End on this
 
 

Видео