Sum 41 - Summer (bass), аккорды

Прокрутка
Тональность
Шрифт
100
Intro:		
[G:------------------------------------------
D:------------------------------------------
A:--5~~~~---2~~~~-----------0~~~~-----------
E:------------------3~~~~-------------------

G:-----------------------------------------------------------
D:-----7-----7-77-99-----------/4----5-----5----2-----2------
A:--5-5--55-5--------2-22-22-22--------------0-0--00-00------
E:--------------------------------3-3--3-33------------------

Verse:		
G:------------------------------------------
D:------------------------------------------
A:-55555555-22222222------------------------
E:-------------------00000000-33333333------ } x2

G:-----------------------------------------------------------
D:-----7-----7-77-99-----------/4----5-----5----2-----2------
A:--5-5--55-5--------2-22-22-22--------------0-0--00-00------
E:--------------------------------3-3--3-33------------------

Verse:		
G:------------------------------------------
D:------------------------------------------
A:-55555555-22222222------------------------
E:-------------------00000000-33333333------ } x2

Pre-Chorus:	
G:------------------------------------------
D:------------------------------------------
A:------------------------------------------
E:-00000000-33333333------------------------

Chorus1:	
G:------------------------------------------------
D:------------------------------------------------
A:-5-55-5--2-22-2--------------------------/10~---
E:-----------------3-33-3--3-33-3--00000000-------

G:---------------------------------------------------------------
D:---------------------------------------------------------------
A:-5-55-5--2-22-2------------------5-55-5--2--------------------
E:-----------------3-33-3--3-33-3----------------3-33-3--3-33-3--

G:--------------------------
D:--------------------------
A:-5555-2222----------------
E:-----------3333-5555------ } x4

G:-----------------------------------------------------------
D:-----7-----7-77-99-----------/4----5-----5----2-----2------
A:--5-5--55-5--------2-22-22-22--------------0-0--00-00------
E:--------------------------------3-3--3-33------------------ } x2

Verse:		
G:------------------------------------------
D:------------------------------------------
A:-55555555-22222222------------------------
E:-------------------00000000-33333333------

G:-------------------------------------------------------
D:-------------------------------------------------------
A:-55555555-22222222-/77777777-10-10-10-10-12-12-12-12---
E:-------------------------------------------------------

Chorus2:	
G:-----------------------------------------------------------------
D:-----------------------------------------------------------------
A:-5-55-5--2-22-2------------------5-55-5--2-22-2------------------
E:-----------------3-33-3--3-33-3------------------3-33-3--3-33-3--

G:--------------------------
D:--------------------------
A:-5555-2222----------------
E:-----------3333-5555------ } x4

G:--------------
D:--------------
A:-5~~~~~~~~----
E:--------------]
 
 

Видео