Sum 41 - Fat Lip, аккорды

Прокрутка
Тональность
Шрифт
100
Intro:
e|--------------------------------------------|
B|--------------------------------------------|
G|--------------------------------------------|
D|-------------------6----------------------4-|
A|--------------------------------------------|
D|-4----5----7---------------4----5----7------|
  _____PM______            ______PM______

e|------------------------------------------------|
B|------------------------------------------------|
G|------------------------------------------------|
D|-------------------6----------------------4---2-|
A|------------------------------------------------|
D|-4----5----7---------------4----5----7----------|
  _____PM______            ______PM______

e|--------------------------------------------|
B|--------------------------------------------|
G|--------------------------------------------|
D|-------------------6----------------------4-|
A|--------------------------------------------|
D|-4----5----7---------------4----5----7------|
  _____PM______            ______PM______

e|------------------------------------------------|
B|------------------------------------------------|
G|------------------------------------------------|
D|-------------------6----------------------4---2-|
A|------------------------------------------------|
D|-4----5----7---------------4----5----7----------|
  _____PM______            ______PM______

(when singing comes in)
e|---------------------------------------------------|
B|---------------------------------------------------|
G|---------------------------------------------------|
D|-----------------4--4----2-2-----------------------|
A|-------7-6-7-----2--2----0-0----7-6-7------------2-|
D|-0--------------------------------------5--4--2--0-|

e|---------------------------------------------------|
B|---------------------------------------------------|
G|---------------------------------------------------|
D|-----------------4--4----2-2-----------------------|
A|-------7-6-7-----2--2----0-0----7-6-7--------------|
D|-0--------------------------------------5--4--2--0-|

Then Fast Bit:
e|------------------------------------------------|
B|------------------------------------------------|
G|------------------------------------------------|
D|------------------------------------------------|
A|-2--2--2--2--2--2--2--2--2--2--2--2--2--2--2--2-|
D|-0--0--0--0--0--0--0--0--0--0--0--0--0--0--0--0-|
 _______________________PM________________________

e|--------------------------------------------|
B|--------------------------------------------|
G|--------------------------------------------|
D|-6--6--6--6--6--6--6--6---------------------|
A|-4--4--4--4--4--4--4--4----7--7--7--7--7--7-|
D|---------------------------5--5--5--5--5--5-|
 ______________________PM_____________________

e|------------------------------------------------|
B|------------------------------------------------|
G|------------------------------------------------|
D|------------------------------------------------|
A|-2--2--2--2--2--2--2--2--2--2--2--2--2--2--2--2-|
D|-0--0--0--0--0--0--0--0--0--0--0--0--0--0--0--0-|
 _______________________PM________________________

e|--------------------------------------|
B|--------------------------------------|
G|--------------------------------------|
D|-6--6--6--6--6--6--6--6---------------|
A|-4--4--4--4--4--4--4--4----7--------7-|
D|---------------------------5--------5-|
  ______________________PM__

Chorus:
e|--------------------------------------------------------|
B|--------------------------------------------------------|
G|-9------------------------------------------------------|
D|-9---9--9----11-11-11-11-11--6---6---7---7---6--6--7--7-|
A|-7---9--9----11-11-11-11-11--6---6---7---7---6--6--7--7-|
D|-----7--7----9--9--9--9--9---4---4---5---5---4--4--5--5-|

e|--------------------------------------------------------|
B|--------------------------------------------------------|
G|-9------------------------------------------------------|
D|-9---9--9----11-11-11-11-11--6---6---7---7---6--6--7--7-|
A|-7---9--9----11-11-11-11-11--6---6---7---7---6--6--7--7-|
D|-----7--7----9--9--9--9--9---4---4---5---5---4--4--5--5-|

e|--------------------------------------------|
B|--------------------------------------------|
G|--------------------------------------------|
D|-------------------6----------------------4-|
A|--------------------------------------------|
D|-4----5----7---------------4----5----7------|
  _____PM______            ______PM______

e|------------------------------------------------|
B|------------------------------------------------|
G|------------------------------------------------|
D|-------------------6----------------------4---2-|
A|------------------------------------------------|
D|-4----5----7---------------4----5----7----------|
  _____PM______            ______PM______

e|--------------------------------------------|
B|--------------------------------------------|
G|--------------------------------------------|
D|-------------------6----------------------4-|
A|--------------------------------------------|
D|-4----5----7---------------4----5----7------|
  _____PM______            ______PM______

e|------------------------------------------------|
B|------------------------------------------------|
G|------------------------------------------------|
D|-------------------6----------------------4---2-|
A|------------------------------------------------|
D|-4----5----7---------------4----5----7----------|
  _____PM______            ______PM______

e|---------------------------------------------------|
B|---------------------------------------------------|
G|---------------------------------------------------|
D|-----------------4--4----2-2-----------------------|
A|-------7-6-7-----2--2----0-0----7-6-7------------2-|
D|-0--------------------------------------5--4--2--0-|

e|---------------------------------------------------|
B|---------------------------------------------------|
G|---------------------------------------------------|
D|-----------------4--4----2-2-----------------------|
A|-------7-6-7-----2--2----0-0----7-6-7--------------|
D|-0--------------------------------------5--4--2--0-|

e|---------------------------------------------------|
B|---------------------------------------------------|
G|---------------------------------------------------|
D|-----------------4--4----2-2-----------------------|
A|-------7-6-7-----2--2----0-0----7-6-7------------2-|
D|-0--------------------------------------5--4--2--0-|

e|---------------------------------------------------|
B|---------------------------------------------------|
G|---------------------------------------------------|
D|-----------------4--4----2-2-----------------------|
A|-------7-6-7-----2--2----0-0----7-6-7--------------|
D|-0--------------------------------------5--4--2--0-|

Fast Bit Again:
e|------------------------------------------------|
B|------------------------------------------------|
G|------------------------------------------------|
D|------------------------------------------------|
A|-2--2--2--2--2--2--2--2--2--2--2--2--2--2--2--2-|
D|-0--0--0--0--0--0--0--0--0--0--0--0--0--0--0--0-|
 _______________________PM________________________

e|--------------------------------------------|
B|--------------------------------------------|
G|--------------------------------------------|
D|-6--6--6--6--6--6--6--6---------------------|
A|-4--4--4--4--4--4--4--4----7--7--7--7--7--7-|
D|---------------------------5--5--5--5--5--5-|
 ______________________PM_____________________

e|------------------------------------------------|
B|------------------------------------------------|
G|------------------------------------------------|
D|------------------------------------------------|
A|-2--2--2--2--2--2--2--2--2--2--2--2--2--2--2--2-|
D|-0--0--0--0--0--0--0--0--0--0--0--0--0--0--0--0-|
 _______________________PM________________________

e|------------------------------------|
B|------------------------------------|
G|------------------------------------|
D|-6--6--6--6--6--6--6--6-------------|
A|-4--4--4--4--4--4--4--4----7------7-|
D|---------------------------5------5-|
 ______________________PM_____________

Chorus:
e|--------------------------------------------------------|
B|--------------------------------------------------------|
G|-9------------------------------------------------------|
D|-9---9--9----11-11-11-11-11--6---6---7---7---6--6--7--7-|
A|-7---9--9----11-11-11-11-11--6---6---7---7---6--6--7--7-|
D|-----7--7----9--9--9--9--9---4---4---5---5---4--4--5--5-|

e|--------------------------------------------------------|
B|--------------------------------------------------------|
G|-9------------------------------------------------------|
D|-9---9--9----11-11-11-11-11--6---6---7---7---6--6--7--7-|
A|-7---9--9----11-11-11-11-11--6---6---7---7---6--6--7--7-|
D|-----7--7----9--9--9--9--9---4---4---5---5---4--4--5--5-|

Then:
e|-----------------------------------------|
B|-----------------------------------------|
G|-----------------------------------------|
D|------------------2--------------------4-|
A|-2--2-----2--2----0----2--2---2--2-----2-|
D|-0--0-----0--0---------0--0---0--0-------|

e|-----------------------------------|
B|-----------------------------------|
G|-----------------------------------|
D|------------------2----------------|
A|-2--2-----2--2----0----2--2---2--2-|
D|-0--0-----0--0---------0--0---0--0-|

Then the bit where he sings: 'dont count on me'
e|--------------------------------------------|
B|--------------------------------------------|
G|-------9--------9-----------6---------------|
D|----9----9----9---9-----6------6------------|
A|-7----------6--------4----------------7-----|
D|----------------------------------5-------5-|

e|--------------------------------------------|
B|--------------------------------------------|
G|-------9--------9-----------6---------------|
D|----9----9----9---9-----6------6------------|
A|-7----------6--------4----------------7-----|
D|----------------------------------5-------5-|
 
 

Видео