Sunrise Avenue - Only, аккорды

Прокрутка
Тональность
Шрифт
100
Вступление:                                           
3)---3---5---6----------------------3---5---6-|--     
4)-4---4---4----------------------3---3---3---|--     
                 When the ride is over...         

Пре-припев:     
3)-5--5-5-5-5-5-8-6-5-----3--3-3-3-3-6-5-3---2--
4)-6---------------------4-------------------3--

3)---3--5--6----3--5--6----------------------      
4)-4--4--4----3--3--3-----------------------

Куплет:
F#               A#m
When the ride is over
F#                    A#m
It`s time to let go the road behind.
F#              A#m
Till the day you gave the pain
F#                   A#m
You made the world be all mine.

Пре-Припев:
G#                           F#
We will fight with all of it
                             F
Tell the day you set these a line...

Припев:
       A#m              F#          
But my dreams are all blind
      G#       C#  /   Fm
I`ll make them only inside
     A#m         F#
And make you be mine 
G#
Only
Let my tears be behind
Be faded only for you
And make you be mine 
Only

Куплет:
All the finest moments
Can ride back to where they were
F#
I hear once more:
A#m                    G#                F#       
Love will be found again, somewhere someday
F#                     F
Would someone else, no way

Припев:
Cause my dreams are all blind
I make them lonely inside
And make you be mine
Only
Let my tears be behind
Be faded only for you
And make you be mine
Only

Соло:
 F#       A#m     F#   G#         C#  Fm  A#m    F#       F   
2)----2--4--4/5/4--2---------2-4-4/5-4-2-1-2-1----1-2--------------------------
3)-3-----------------3---1-3-------------------3--------1-3--1-----------------
4)----------------------------------------------------4--------4-3-1-1-1-3-3-3-

Припев:
All my dreams are so blind
I make them lonely inside
And make you be mine
Only
Let my tears be behind
Be faded only for you
And make you be mine
Only

Соло
Yeah
Only
                                             
F#               A#m                         
When the ride is over...                     
 
2)-----------------------------------------------4--6-
3)---3---5---6----------------------3---5---6---------
4)-4---4---4----------------------3---3---3-----3--3--

Комментарий автора:

Бой: V v ^ ^ v ^/D 
 
 
Свернуть Распечатать

Видео