Валерий Сюткин - 7000 над землей, аккорды

Прокрутка
Тональность
Шрифт
100
Вступление:
   A7      B7 
e|-0--------7---7-
b|---2-----0-0-0--
g|-3-0-3-0--------
d|-----2----------
a|-------4--------
e|----------------

        Em        B7        B7                    Em
e|--0-3-7---7-5-3-5-7-----2-5-7---5-7-5-7-5-5-5-5-3-0-
b|-0-------------------0-4----------------------------
g|----------------------------------------------------
d|----------------------------------------------------
a|----------------------------------------------------
e|----------------------------------------------------
        Em        B7        B7            Em
e|--0-3-7---7-5-3-5-7-----2-5-7---3-3-2-2-0-
b|-0-------------------0-4------------------
g|------------------------------------------
d|------------------------------------------
a|------------------------------------------
e|------------------------------------------

Em
Поздний час, половина первого, 7000 над землей,
B7                   Em C B7
Гул турбин, обрывки сна.
Em
За окном облаками белыми лежит пейзаж ночной,
B7                 Em
А над ним летит луна.

C                 Em
Тайное движенье в небе без конца,
C               Am      B7
Вижу отраженье твоего лица.

Припев:
        Em                B7
Ты далеко от меня за пеленой другого дня,
                                Em C B7
Но даже время мне не сможет помешать
       Em                B7
Перелететь океан и разогнав крылом туман,
                                 A   B7
Упав с ночных небес скорей тебя обнять.

Em
За окном небо все темнее, спит автопилот,
B7                   Em C B7
Там внизу, наверно, дождь.
Em
Ночь длинна, но еще длинней путь, как долог мой полет,
B7                 Em
В те места, где ты живешь.

C                 Em
Тайное движенье в небе без конца   
C               Am      B7
Вижу отраженье твоего лица.

Припев:
        Em                B7
Ты далеко от меня за пеленой другого дня,
                                Em C B7
Но даже время мне не сможет помешать
       Em                B7
Перелететь океан и разогнав крылом туман,
                                 A   B7
Упав с ночных небес скорей тебя обнять.

Проигрыш:
        Em        B7        B7                    Em
e|--0-3-7---7-5-3-5-7-----2-5-7---5-7-5-7-5-5-5-5-3-0-
b|-0-------------------0-4----------------------------
g|----------------------------------------------------
d|----------------------------------------------------
a|----------------------------------------------------
e|----------------------------------------------------

Em B7 B7 Em C Em C Am B7

Припев:
        Em                B7
Ты далеко от меня за пеленой другого дня,
                                Em C B7
Но даже время мне не сможет помешать
       Em                B7
Перелететь океан и разогнав крылом туман,
                                 A   B7
Упав с ночных небес скорей тебя обнять.

        Em                 B7
Ты далеко от меня, за пеленой другого дня,
          B7                     Em C  
Но даже время мне не сможет помешать
   B7   Em                B7
Перелететь океан и, разогнав крылом туман,
                                    A7     B7    Em B7 Em
                                 e|-0------------------0-
                                 b|---2-----0-0-----4----
                                 g|-3-0-3-0----0-0-------
           B7                    d|-----2---------2------
                                 a|-------4--------------
                                 e|----------------------
Упав с ночных небес, скорей тебя обнять.

Комментарий автора:

Автор подбора вступление и проигрышей: nikorosahsap.
 
 
Свернуть Распечатать

Видео