Запрещают песни Цоя, Агата Кристи, Наутилус Помпилиус, Зиверт
Отвечаем в отдельной теме

System Of A Down - Roulette, аккорды

Прокрутка
Тональность
Шрифт
100
Cm D# A#
D||--------5----------5-----|--1----8--------------------|
A||--------6----------6-----|--1----10------------8------|
F||--7----7--7----7--7------|-------10------------9------|
C||--7-------7----7-----7---|--3--------10--10----10-----|
G||---5-------5----5-----5--|-----------8---10--------10-|
C||-------------------------|---------------10--------10-|

C# G# A#
-------6----------6-----|---------------------------||
-------8----------8-----|-------6-----------8-------||
--8----8--8----8--8-----|-------7-----------9-------||
--8-------8----8-----8--|--8----8-----10----10------||
--6-------6----6-----6--|--8-------8--10--------10--||
------------------------|--8-------8--10--------10--||

Cm D# A#
-------------------------------|--------8---------------------|
---------10------------10------|--------10------------8-------|
--------10------------10-------|--10----10------------9-------|
--12----12--12----12--12-------|--10--------10--10----10------|
---12--------12----12------12--|--8---------8---10--------10--|
---12--------12----12------12--|----------------10--------10--|

C# G# A#
-------6----------6-----|---------------------------||
-------8----------8-----|-------6-----------8-------||
--8----8--8----8--8-----|-------7-----------9-------||
--8-------8----8-----8--|--8----8-----10----10------||
--6-------6----6-----6--|--8-------8--10--------10--||
------------------------|--8-------8--10--------10--||

Cm G#
-------------------------------|------------------------|
---------10------------10------|-------6----------6-----|
--------10------------10-------|-------7----------7-----|
--12----12--12----12--12-------|--8----8--8----8--8-----|
---12--------12----12------12--|--8-------8----8-----8--|
---12--------12----12------12--|--8-------8----8-----8--|

A# G# A#
------------------------------|---------------------------||
--------8-------------8-------|-------6-----------8-------||
--------9-------------9-------|-------7-----------9-------||
--10----10--10----10--10------|--8----8-----10----10------||
--10--------10----10------10--|--8-------8--10--------10--||
--10--------10----10------10--|--8-------8--10--------10--||

Cm D# A#
-------------------------------|--------8---------------------|
---------10------------10------|--------10------------8-------|
--------10------------10-------|--10----10------------9-------|
--12----12--12----12--12-------|--10--------10--10----10------|
---12--------12----12------12--|--8---------8---10--------10--|
---12--------12----12------12--|----------------10--------10--|

C# G# A#
-------6----------6-----|---------------------------||
-------8----------8-----|-------6-----------8-------||
--8----8--8----8--8-----|-------7-----------9-------||
--8-------8----8-----8--|--8----8-----10----10------||
--6-------6----6-----6--|--8-------8--10--------10--||
------------------------|--8-------8--10--------10--||

Cm D# A#
-------------------------------|--------8---------------------|
---------10------------10------|--------10------------8-------|
--------10------------10-------|--10----10------------9-------|
--12----12--12----12--12-------|--10--------10--10----10------|
---12--------12----12------12--|--8---------8---10--------10--|
---12--------12----12------12--|----------------10--------10--|

C# G# A#
-------6----------6-----|---------------------------||
-------8----------8-----|-------6-----------8-------||
--8----8--8----8--8-----|-------7-----------9-------||
--8-------8----8-----8--|--8----8-----10----10------||
--6-------6----6-----6--|--8-------8--10--------10--||
------------------------|--8-------8--10--------10--||

Cm G#
-------------------------------|------------------------|
---------10------------10------|-------6----------6-----|
--------10------------10-------|-------7----------7-----|
--12----12--12----12--12-------|--8----8--8----8--8-----|
---12--------12----12------12--|--8-------8----8-----8--|
---12--------12----12------12--|--8-------8----8-----8--|

A# G# A# 3x
------------------------------|---------------------------||
--------8-------------8-------|-------6-----------8-------||
--------9-------------9-------|-------7-----------9-------||
--10----10--10----10--10------|--8----8-----10----10------||
--10--------10----10------10--|--8-------8--10--------10--||
--10--------10----10------10--|--8-------8--10--------10--||

Cm D# A#
-------------------------------|--------8---------------------|
---------10------------10------|--------10------------8-------|
--------10------------10-------|--10----10------------9-------|
--12----12--12----12--12-------|--10--------10--10----10------|
---12--------12----12------12--|--8---------8---10--------10--|
---12--------12----12------12--|----------------10--------10--|

C# G# A#
-------6----------6-----|---------------------------|
-------8----------8-----|-------6-----------8-------|
--8----8--8----8--8-----|-------7-----------9-------|
--8-------8----8-----8--|--8----8-----10----10------|
--6-------6----6-----6--|--8-------8--10--------10--|
------------------------|--8-------8--10--------10--|

Cm D# A#
------------------------------|--------8---------------------|
--------10------------10------|--------10------------8-------|
--------10------------10------|--10----10------------9-------|
--12----12--12----12--12------|--10--------10--10----10------|
--12--------12----12------12--|--8---------8---10--------10--|
--12--------12----12------12--|----------------10--------10--|

C# G# A#
-------6----------6-----|---------------------------||
-------8----------8-----|-------6-----------8-------||
--8----8--8----8--8-----|-------7-----------9-------||
--8-------8----8-----8--|--8----8-----10----10------||
--6-------6----6-----6--|--8-------8--10--------10--||
------------------------|--8-------8--10--------10--||

Cm G#
-------------------------------|------------------------|
---------10------------10------|-------6----------6-----|
--------10------------10-------|-------7----------7-----|
--12----12--12----12--12-------|--8----8--8----8--8-----|
---12--------12----12------12--|--8-------8----8-----8--|
---12--------12----12------12--|--8-------8----8-----8--|

A# G# A#
------------------------------|---------------------------||
--------8-------------8-------|-------6-----------8-------||
--------9-------------9-------|-------7-----------9-------||
--10----10--10----10--10------|--8----8-----10----10------||
--10--------10----10------10--|--8-------8--10--------10--||
--10--------10----10------10--|--8-------8--10--------10--||

Cm G#
-------------------------------|------------------------|
---------10------------10------|-------6----------6-----|
--------10------------10-------|-------7----------7-----|
--12----12--12----12--12-------|--8----8--8----8--8-----|
---12--------12----12------12--|--8-------8----8-----8--|
---12--------12----12------12--|--8-------8----8-----8--|

A# G# A#
------------------------------|---------------------------||
--------8-------------8-------|-------6-----------8-------||
--------9-------------9-------|-------7-----------9-------||
--10----10--10----10--10------|--8----8-----10----10------||
--10--------10----10------10--|--8-------8--10--------10--||
--10--------10----10------10--|--8-------8--10--------10--||

Cm D# A#
------------------------------|--------8---------------------|
--------10------------10------|--------10------------8-------|
--------10------------10------|--10----10------------9-------|
--12----12--12----12--12------|--10--------10--10----10------|
--12--------12----12------12--|--8---------8---10--------10--|
--12--------12----12------12--|----------------10--------10--|

C# G# A#
-------6----------6-----|---------------------------|
-------8----------8-----|-------6-----------8-------|
--8----8--8----8--8-----|-------7-----------9-------|
--8-------8----8-----8--|--8----8-----10----10------|
--6-------6----6-----6--|--8-------8--10--------10--|
------------------------|--8-------8--10--------10--|

Cm D# A#
|-------------------------------|--------8---------------------|
|---------10------------10------|--------10------------8-------|
|--------10------------10-------|--10----10------------9-------|
|--12----12--12----12--12-------|--10--------10--10----10------|
|---12--------12----12------12--|--8---------8---10--------10--|
|---12--------12----12------12--|----------------10--------10--|

C# G# A#
-------6----------6-----|---------------------------||
-------8----------8-----|-------6-----------8-------||
--8----8--8----8--8-----|-------7-----------9-------||
--8-------8----8-----8--|--8----8-----10----10------||
--6-------6----6-----6--|--8-------8--10--------10--||
------------------------|--8-------8--10--------10--||

Cm D# A#
------------------------------|--------8---------------------|
--------10------------10------|--------10------------8-------|
--------10------------10------|--10----10------------9-------|
--12----12--12----12--12------|--10--------10--10----10------|
--12--------12----12------12--|--8---------8---10--------10--|
--12--------12----12------12--|----------------10--------10--|

C# G# A#
-------6----------6-----|---------------------------|--------------------|
-------8----------8-----|-------6-----------8-------|--10----------------|
--8----8--8----8--8-----|-------7-----------9-------|--10----------------|
--8-------8----8-----8--|--8----8-----10----10------|--12----------------|
--6-------6----6-----6--|--8-------8--10--------10--|--12----------------|
------------------------|--8-------8--10--------10--|--12----------------|

Solo
||---10--------------10-12-|
||-------------------------|
||-------------------------|
||-------------------------|
||-------------------------|
||-------------------------|

--13--------------12-13-|--15--------------12-13-|
------------------------|------------------------|
------------------------|------------------------|
------------------------|------------------------|
------------------------|------------------------|
------------------------|------------------------|

--15--13--12--10--12--13--12--10--|--10------------------------|
----------------------------------|----------10--10------10-11-|
----------------------------------|----------------------------|
----------------------------------|----------------------------|
----------------------------------|----------------------------|
----------------------------------|----------------------------|

--8--6--5--3--5--6--5--3--|--3------------------|--6-----0/----0--1-------||
--------------------------|---------1--1--------|--8--6/----3--------3----||
--------------------------|---------------------|-------------------------||
--------------------------|---------------------|-------------------------||
--------------------------|---------------------|-------------------------||
--------------------------|---------------------|-------------------------||
 
 

Видео