Запрещают песни Цоя, Агата Кристи, Наутилус Помпилиус, Зиверт
Отвечаем в отдельной теме

System Of A Down - ADD, аккорды

Прокрутка
Тональность
Шрифт
100
A
E|-10--10-10-10-10--10-10b12-10-10--10-|
B|-------------------------------------|
G|-------------------------------------|
D|-------------------------------------|
A|-------------------------------------|
E|-------------------------------------|
 
E|-10-10--10-10-10-10--10-10b12-10-10-10-10-|
B|------------------------------------------|
G|------------------------------------------|
D|------------------------------------------|
A|------------------------------------------|
E|------------------------------------------|

E|-10-10b12-10-10-10-10-|-10-10b12-10-10-10-10-|
B|----------------------|----------------------|
G|----------------------|----------------------|
D|----------------------|----------------------|
A|----------------------|----------------------|
E|----------------------|----------------------|

E|-10-10b12-10-10-10-10-|-10-10b12-|
B|----------------------|----------|
G|----------------------|----------|
D|----------------------|----------|
A|----------------------|----------|
E|----------------------|----------|

B
E|------------|------------|------------|----------------|
B|------------|------------|------------|----------------|
G|------------|------------|------------|----------------|
D|-7----------|-7----------|-7----------|-7--------5-7-8-|
A|-5----------|-5----------|-5----------|-5--------3-5-6-|
E|----0-0-0-0-|----0-0-0-0-|----0-0-0-0-|----0-0-0-------|

B'
pm... ..... ..... .....
E|------------|------------|------------|----------------|
B|------------|------------|------------|----------------|
G|------------|------------|------------|----------------|
D|-7--0-0-0-0-|-7--0-0-0-0-|-7--0-0-0-0-|-7--0-0-0-5-7-8-|
A|-5--0-0-0-0-|-5--0-0-0-0-|-5--0-0-0-0-|-5--0-0-0-3-5-6-|
E|----0-0-0-0-|----0-0-0-0-|----0-0-0-0-|----0-0-0-------|

pm... ..... ..... .....
E|------------|------------|------------|------------|
B|------------|------------|------------|------------|
G|------------|------------|------------|------------|
D|-7--0-0-0-0-|-7--0-0-0-0-|-7--0-0-0-0-|-7--0-0-0-0-|
A|-5--0-0-0-0-|-5--0-0-0-0-|-5--0-0-0-0-|-5--0-0-0-0-|
E|----0-0-0-0-|----0-0-0-0-|----0-0-0-0-|----0-0-0-0-|

C
E|-------------------------|-------------------------|
B|-------------------------|-------------------------|
G|-------------------------|-------------------------|
D|-1--1--1-1-1-7--7--7-7-7-|-0--0--0-0-0-6--6--6-6-6-|
A|-1--1--1-1-1-7--7--7-7-7-|-0--0--0-0-0-6--6--6-6-6-|
E|-1--1--1-1-1-7--7--7-7-7-|-0--0--0-0-0-6--6--6-6-6-|

E|------------------------------|
B|------------------------------|
G|------------------------------|
D|-11--11--11-11-11-5--5--5-5-5-|
A|-11--11--11-11-11-5--5--5-5-5-|
E|-11--11--11-11-11-5--5--5-5-5-|

D
4x:
pm................
E|-----------------|
B|-----------------|
G|-----------------|
D|-----------------|
A|-----------------|
E|-0-0-0-0-0-0-0-0-|

E
3x: 1x:
pm............................
E|-----------------|-----------|
B|-----------------|-----------|
G|-----------------|-----------|
D|-----------------|-----------|
A|-----------------|-----------|
E|-0-0-0-0-0-0-0-0-|-0-0-0-0-0-|

F
E|-----------------|-----------------|-----------------|-----------------|
B|-6-6-6-6-6-6-6-6-|-6-6-6-6-6-6-6-6-|-6-6-4-4-4-4-4-4-|-4-4-4-4-4-4-4-4-|
G|-----------------|-----------------|-----------------|-----------------|
D|-3-3-3-3-3-3-3-3-|-3-3-3-3-3-3-3-3-|-3-3-2-2-2-2-2-2-|-2-2-2-2-2-2-2-2-|
A|-----------------|-----------------|-----------------|-----------------|
E|-----------------|-----------------|-----------------|-----------------|

E|-----------------|-----------------|-----------------|-----------------|
B|-8-8-8-8-8-8-8-8-|-8-8-8-8-8-8-8-8-|-8-8-6-6-6-6-6-6-|-6-6-6-6-6-6-6-6-|
G|-----------------|-----------------|-----------------|-----------------|
D|-5-5-5-5-5-5-5-5-|-5-5-5-5-5-5-5-5-|-5-5-3-3-3-3-3-3-|-3-3-3-3-3-3-3-3-|
A|-----------------|-----------------|-----------------|-----------------|
E|-----------------|-----------------|-----------------|-----------------|

E|-------------------------|-------------------------|
B|-10-10-10-10-10-10-10-10-|-10-10-10-10-10-10-10-10-|
G|-------------------------|-------------------------|
D|--7--7--7--7--7--7--7--7-|--7--7--7--7--7--7--7--7-|
A|-------------------------|-------------------------|
E|-------------------------|-------------------------|

E|-------------------|-----------------|
B|-10-10-8-8-8-8-8-8-|-8-8-8-8-8-8-8-8-|
G|-------------------|-----------------|
D|--7--7-5-5-5-5-5-5-|-5-5-5-5-5-5-5-5-|
A|-------------------|-----------------|
E|-------------------|-----------------|

E|-------------------------|-------------------------|
B|-11-11-11-11-11-11-11-11-|-11-11-11-11-11-11-11-11-|
G|-------------------------|-------------------------|
D|--8--8--8--8--8--8--8--8-|--8--8--8--8--8--8--8--8-|
A|-------------------------|-------------------------|
E|-------------------------|-------------------------|

E|-------------------------|---------|
B|-11-11-10-10-10-10-10-10-|-10------|
G|-------------------------|----(8x)-|
D|--8--8--7--7--7--7--7--7-|--7------|
A|-------------------------|---------|
E|-------------------------|---------|

G
6x: 1x:
E|---------10b12r10-|-10--10-10--10-10-10-10--10-10-|
B|------------------|-------------------------------|
G|-7--7-7-----------|--7---7--7---7--7--7--7---7--7-|
D|------------------|-------------------------------|
A|------------------|-------------------------------|
E|------------------|-------------------------------|

Н
pm...... ........
E|--------------|--------------|
B|--------------|--------------|
G|--------------|--------------|
D|-----0--0-0-0-|-h5--0--0-0-0-|
A|-h5--0--0-0-0-|-----0--0-0-0-|
E|-----0--0-0-0-|-----0--0-0-0-|

I
4x:
E|--------|
B|--------|
G|--------|
D|-----h5-|
A|-h5-----|
E|--------|

J
pm...... .
E|--------------|---------------|
B|--------------|---------------|
G|--------------|---------------|
D|-----0--0-0-0-|-7--0--5-7-8-7-|
A|-h5--0--0-0-0-|-5--0--3-5-6-5-|
E|-----0--0-0-0-|----0----------|

ORDER:
A
B 2x
B'
C
D
E
F
G
C
H
C
D
F
G
C
H
C
H
I
B 2x
B'
F
G
C
H
C
H 3x
J
 
 

Видео