Зачем удалили Цоя?
Отвечаем в отдельной теме

System Of A Down - ADD, аккорды

Прокрутка
Тональность
Шрифт
100
Intro:
D|-------------------------------------------------|
A|-15-15151515-15-15b-1515-15-1515-15151515-15-15b-|
F|-------------------------------------------------|
C|-------------------------------------------------|
G|-------------------------------------------------|
C|-------------------------------------------------|

D|---------------------------------------------------------------|
A|-1515151515-15b-15151515-15-15b-1515-15-15-15b-15151515-15-15b-|
F|---------------------------------------------------------------|
C|---------------------------------------------------------------|
G|---------------------------------------------------------------|
C|---------------------------------------------------------------|

D|-----------------------------------------------|
A|-----------------------------------------------|
F|-----------------------------------------------|
C|-----------------------------------------------|
G|-12-00000-12-00000-12-00000-12-000-10-12-13-12-|
C|-12-00000-12-00000-12-00000-12-000-10-12-13-12-|

D|--------------------------------------------|
A|--------------------------------------------|
F|--------------------------------------------|
C|--------------------------------------------|
G|-00000-12-00000-12-00000-12-000-10-12-13-12-|
C|-00000-12-00000-12-00000-12-000-10-12-13-12-|

D|-------------------------------------------|
A|-------------------------------------------|
F|-------------------------------------------|
C|-------------------------------------------|
G|-00000-12-0000-0-12-0000-0-12-000-10-12-13-|
C|-00000-12-0000-0-12-0000-0-12-000-10-12-13-|
PM..... .... .... ...

D|-----------------------------------------|
A|-----------------------------------------|
F|-----------------------------------------|
C|-----------------------------------------|
G|-12-00000-12-00000-12-0000-0-12-000-10/6-|
C|-12-00000-12-00000-12-0000-0-12-000-10/6-|
PM..... ..... .... ...

Bridge:
D|------------------------------------------------------------|
A|------------------------------------------------------------|
F|------------------------------------------------------------|
C|-1--1-111-7--7-777-0--0-000-6--6-666-11--11-111111-5--5-555-|
G|-1--1-111-7--7-777-0--0-000-6--6-666-11--11-111111-5--5-555-|
C|-1--1-111-7--7-777-0--0-000-6--6-666-11--11-111111-5--5-555-|

D|---------------------------------|
A|---------------------------------|
F|---------------------------------|
C|---------------------------------|
G|-0-0-0-0-0-0-0-0-0-0-0-0-0-0-0-0-|
C|-0-0-0-0-0-0-0-0-0-0-0-0-0-0-0-0-|
PM................................

Verse:
"We Fought Your Wars..."
D|---------------------------------------------------|
A|---------------------------------------------------|
F|-1010101010101010101010101010101010999999999999999-|
C|--X-X-X-X-X-X-X-X-X-X-X-X-X-X-X-X-XXXXXXXXXXXXXXXX-|
G|--8-8-8-8-8-8-8-8-8-8-8-8-8-8-8-8-8777777777777777-|
C|--0-0-0-0-0-0-0-0-0-0-0-0-0-0-0-0-0000000000000000-|

"You Sent Us Back..."
D|------------------------------------------------------------------|
A|------------------------------------------------------------------|
F|-1212121212121212121212121212121212101010101010101010101010101010-|
C|--X-X-X-X-X-X-X-X-X-X-X-X-X-X-X-X-X-X-X-X-X-X-X-X-X-X-X-X-X-X-X-X-|
G|-1010101010101010101010101010101010-8-8-8-8-8-8-8-8-8-8-8-8-8-8-8-|
C|--0-0-0-0-0-0-0-0-0-0-0-0-0-0-0-0-0-0-0-0-0-0-0-0-0-0-0-0-0-0-0-0-|

"You Took Our Wills..."
D|------------------------------------------------------------------|
A|------------------------------------------------------------------|
F|-1414141414141414141414141414141414121212121212121212121212121212-|
C|--X-X-X-X-X-X-X-X-X-X-X-X-X-X-X-X-X-X-X-X-X-X-X-X-X-X-X-X-X-X-X-X-|
G|-1212121212121212121212121212121212101010101010101010101010101010-|
C|--0-0-0-0-0-0-0-0-0-0-0-0-0-0-0-0-0-0-0-0-0-0-0-0-0-0-0-0-0-0-0-0-|

"We Offer Prayers..."
D|------------------------------------------------------------------|
A|------------------------------------------------------------------|
F|-1515151515151515151515151515151515141414141414141414141414141414-|
C|--X-X-X-X-X-X-X-X-X-X-X-X-X-X-X-X-X-X-X-X-X-X-X-X-X-X-X-X-X-X-X-X-|
G|-1313131313131313131313131313131313121212121212121212121212121212-|
C|--0-0-0-0-0-0-0-0-0-0-0-0-0-0-0-0-0-0-0-0-0-0-0-0-0-0-0-0-0-0-0-0-|

"The Reminder Is..."
D|--------------------------------------------------|
A|---------15b----------15b---------15b---------15b-|
F|--------------------------------------------------|
C|-121212-------121212-------121212------121212-----|
G|--------------------------------------------------|
C|--------------------------------------------------|

"...American Dream..."
D|------------------------------|
A|---------15b-1515151515151515-|
F|------------------------------|
C|-121212-----------------------|
G|------------------------------|
C|------------------------------|

Chorus:
"We Dont Give A Damn..."
D|------------------------------------------------------------|
A|------------------------------------------------------------|
F|------------------------------------------------------------|
C|-1--1-111-7--7-777-0--0-000-6--6-666-11--11-111111-5--5-555-|
G|-1--1-111-7--7-777-0--0-000-6--6-666-11--11-111111-5--5-555-|
C|-1--1-111-7--7-777-0--0-000-6--6-666-11--11-111111-5--5-555-|

"Right Now..."
D|------------------|
A|------------------|
F|-----------7-----|
C|-7---------------|
G|-----000------000-|
C|-----000------000-|
PM... ...

"We Dont Give A F..."
D|------------------------------------------------------------|
A|------------------------------------------------------------|
F|------------------------------------------------------------|
C|-1--1-111-7--7-777-0--0-000-6--6-666-11--11-111111-5--5-555-|
G|-1--1-111-7--7-777-0--0-000-6--6-666-11--11-111111-5--5-555-|
C|-1--1-111-7--7-777-0--0-000-6--6-666-11--11-111111-5--5-555-|

"Right Now..."
D|---------------------------------|
A|---------------------------------|
F|---------------------------------|
C|---------------------------------|
G|-0-0-0-0-0-0-0-0-0-0-0-0-0-0-0-0-|
C|-0-0-0-0-0-0-0-0-0-0-0-0-0-0-0-0-|
PM................................

Verse:
"There Is No Flag..."
D|---------------------------------------------------|
A|---------------------------------------------------|
F|-1010101010101010101010101010101010999999999999999-|
C|--X-X-X-X-X-X-X-X-X-X-X-X-X-X-X-X-XXXXXXXXXXXXXXXX-|
G|--8-8-8-8-8-8-8-8-8-8-8-8-8-8-8-8-8777777777777777-|
C|--0-0-0-0-0-0-0-0-0-0-0-0-0-0-0-0-0000000000000000-|

"To Hide The Shame..."
D|------------------------------------------------------------------|
A|------------------------------------------------------------------|
F|-1212121212121212121212121212121212101010101010101010101010101010-|
C|--X-X-X-X-X-X-X-X-X-X-X-X-X-X-X-X-X-X-X-X-X-X-X-X-X-X-X-X-X-X-X-X-|
G|-1010101010101010101010101010101010-8-8-8-8-8-8-8-8-8-8-8-8-8-8-8-|
C|--0-0-0-0-0-0-0-0-0-0-0-0-0-0-0-0-0-0-0-0-0-0-0-0-0-0-0-0-0-0-0-0-|

"You Swtiched The Signs..."
D|------------------------------------------------------------------|
A|------------------------------------------------------------------|
F|-1414141414141414141414141414141414121212121212121212121212121212-|
C|--X-X-X-X-X-X-X-X-X-X-X-X-X-X-X-X-X-X-X-X-X-X-X-X-X-X-X-X-X-X-X-X-|
G|-1212121212121212121212121212121212101010101010101010101010101010-|
C|--0-0-0-0-0-0-0-0-0-0-0-0-0-0-0-0-0-0-0-0-0-0-0-0-0-0-0-0-0-0-0-0-|

"You Changed The Chanel..."
D|------------------------------------------------------------------|
A|------------------------------------------------------------------|
F|-1515151515151515151515151515151515141414141414141414141414141414-|
C|--X-X-X-X-X-X-X-X-X-X-X-X-X-X-X-X-X-X-X-X-X-X-X-X-X-X-X-X-X-X-X-X-|
G|-1313131313131313131313131313131313121212121212121212121212121212-|
C|--0-0-0-0-0-0-0-0-0-0-0-0-0-0-0-0-0-0-0-0-0-0-0-0-0-0-0-0-0-0-0-0-|

"The Reminder Is..."
D|--------------------------------------------------|
A|---------15b----------15b---------15b---------15b-|
F|--------------------------------------------------|
C|-121212-------121212-------121212------121212-----|
G|--------------------------------------------------|
C|--------------------------------------------------|

"...American Dream..."
D|------------------------------|
A|---------15b-1515151515151515-|
F|------------------------------|
C|-121212-----------------------|
G|------------------------------|
C|------------------------------|

Chorus:
"We Dont Give A Damn..."
D|------------------------------------------------------------|
A|------------------------------------------------------------|
F|------------------------------------------------------------|
C|-1--1-111-7--7-777-0--0-000-6--6-666-11--11-111111-5--5-555-|
G|-1--1-111-7--7-777-0--0-000-6--6-666-11--11-111111-5--5-555-|
C|-1--1-111-7--7-777-0--0-000-6--6-666-11--11-111111-5--5-555-|

"Right Now..."
D|------------------|
A|------------------|
F|-----------7-----|
C|-7---------------|
G|-----000------000-|
C|-----000------000-|
PM... ...

"We Dont Give A F..."
D|------------------------------------------------------------|
A|------------------------------------------------------------|
F|------------------------------------------------------------|
C|-1--1-111-7--7-777-0--0-000-6--6-666-11--11-111111-5--5-555-|
G|-1--1-111-7--7-777-0--0-000-6--6-666-11--11-111111-5--5-555-|
C|-1--1-111-7--7-777-0--0-000-6--6-666-11--11-111111-5--5-555-|

"Right Now..."
D|--------------------------------------|
A|--------------------------------------|
F|-------7--------7--------7--------7-|
C|-7--------7--------7--------7-------|
G|--------------------------------------|
C|--------------------------------------|

Interlude:
D|-----------------------------------------------|
A|-----------------------------------------------|
F|-----------------------------------------------|
C|-----------------------------------------------|
G|-12-00000-12-00000-12-00000-12-000-10-12-13-12-|
C|-12-00000-12-00000-12-00000-12-000-10-12-13-12-|

D|--------------------------------------------|
A|--------------------------------------------|
F|--------------------------------------------|
C|--------------------------------------------|
G|-00000-12-00000-12-00000-12-000-10-12-13-12-|
C|-00000-12-00000-12-00000-12-000-10-12-13-12-|

D|---------------------------------|
A|---------------------------------|
F|---------------------------------|
C|---------------------------------|
G|-00000-12-00000-12-0000-0-12-000-|
C|-00000-12-00000-12-0000-0-12-000-|
PM..... ..... .... ...

D|------------------------------------|
A|------------------------------------|
F|------------------------------------|
C|------------------------------------|
G|-12-00000-12-00000-12-0000-0-12-000-|
C|-12-00000-12-00000-12-0000-0-12-000-|
PM..... ..... .... ...

Verse:
D|---------------------------------------------------|
A|---------------------------------------------------|
F|-1010101010101010101010101010101010999999999999999-|
C|--X-X-X-X-X-X-X-X-X-X-X-X-X-X-X-X-XXXXXXXXXXXXXXXX-|
G|--8-8-8-8-8-8-8-8-8-8-8-8-8-8-8-8-8777777777777777-|
C|--0-0-0-0-0-0-0-0-0-0-0-0-0-0-0-0-0000000000000000-|

"No Flag Large Enough"
D|------------------------------------------------------------------|
A|------------------------------------------------------------------|
F|-1212121212121212121212121212121212101010101010101010101010101010-|
C|--X-X-X-X-X-X-X-X-X-X-X-X-X-X-X-X-X-X-X-X-X-X-X-X-X-X-X-X-X-X-X-X-|
G|-1010101010101010101010101010101010-8-8-8-8-8-8-8-8-8-8-8-8-8-8-8-|
C|--0-0-0-0-0-0-0-0-0-0-0-0-0-0-0-0-0-0-0-0-0-0-0-0-0-0-0-0-0-0-0-0-|

"Shame On A Man In Cuffs"
D|------------------------------------------------------------------|
A|------------------------------------------------------------------|
F|-1414141414141414141414141414141414121212121212121212121212121212-|
C|--X-X-X-X-X-X-X-X-X-X-X-X-X-X-X-X-X-X-X-X-X-X-X-X-X-X-X-X-X-X-X-X-|
G|-1212121212121212121212121212121212101010101010101010101010101010-|
C|--0-0-0-0-0-0-0-0-0-0-0-0-0-0-0-0-0-0-0-0-0-0-0-0-0-0-0-0-0-0-0-0-|

"You Closed Your Blinds"
D|------------------------------------------------------------------|
A|------------------------------------------------------------------|
F|-1515151515151515151515151515151515141414141414141414141414141414-|
C|--X-X-X-X-X-X-X-X-X-X-X-X-X-X-X-X-X-X-X-X-X-X-X-X-X-X-X-X-X-X-X-X-|
G|-1313131313131313131313131313131313121212121212121212121212121212-|
C|--0-0-0-0-0-0-0-0-0-0-0-0-0-0-0-0-0-0-0-0-0-0-0-0-0-0-0-0-0-0-0-0-|

"The Reminder Is..."
D|--------------------------------------------------|
A|---------15b----------15b---------15b---------15b-|
F|--------------------------------------------------|
C|-121212-------121212-------121212------121212-----|
G|--------------------------------------------------|
C|--------------------------------------------------|

"...American Dream..."
D|------------------------------|
A|---------15b-1515151515151515-|
F|------------------------------|
C|-121212-----------------------|
G|------------------------------|
C|------------------------------|

Chorus:
"We Dont Give A Damn..."
D|------------------------------------------------------------|
A|------------------------------------------------------------|
F|------------------------------------------------------------|
C|-1--1-111-7--7-777-0--0-000-6--6-666-11--11-111111-5--5-555-|
G|-1--1-111-7--7-777-0--0-000-6--6-666-11--11-111111-5--5-555-|
C|-1--1-111-7--7-777-0--0-000-6--6-666-11--11-111111-5--5-555-|

"Right Now..."
D|------------------|
A|------------------|
F|-----------7-----|
C|-7---------------|
G|-----000------000-|
C|-----000------000-|
PM... ...

"We Dont Give A F..."
D|------------------------------------------------------------|
A|------------------------------------------------------------|
F|------------------------------------------------------------|
C|-1--1-111-7--7-777-0--0-000-6--6-666-11--11-111111-5--5-555-|
G|-1--1-111-7--7-777-0--0-000-6--6-666-11--11-111111-5--5-555-|
C|-1--1-111-7--7-777-0--0-000-6--6-666-11--11-111111-5--5-555-|

Outro:
"Right Now"
D|-----------------------------|
A|-----------------------------|
F|-----7------7------7-----7-|
C|-7------7------7-----7-----|
G|-----------------------------|
C|-----------------------------|
 
 
Свернуть Распечатать

Видео